Zum-Zum

Chords

01234567891011121314151617181920212223
E
B
G
D
A
E
B
0 1 2 3 4 5 6 7 8 9 10 11 12 13 14 15 16 17 18 19 20 21 22 23
(/) Slide Up  (\) Slide Down  (h) Hammer On  (p) Pull Off  (b) Bend (r) Release (v) Vibrato

Stave 1:

E|--------------------------------------------0--
B|--0--0-----0-----0--0--0--0-----0-----6--6-----
G|--5--5-----5-----5--5--7--7-----7-----7--7-----
D|--5--5-----4-----4--4--7--7-----7-----6--6-----
A|-----------------------------------------------
E|--5-----5-----5-----5--7-----7-----0-----0-----

Stave 2:

E|-----------------------------------------------------------------------
B|--0--0-----0-----0--0--1--1-----1-----2--2--3--1--1--1--3--3--3--3--3--
G|--5--5-----5-----5--5--2--2-----2-----2--2--2--2--2--2--2--2--2--1--1--
D|--5--5-----5-----5--5--3--3-----3-----3--3--0--0--0--0--3--3--3--3--3--
A|--------------------------------------------3--0--------2--2--2--2--2--
E|--5-----5-----5-----5--3-----3-----3-----3--------3--2-----------------

							http://www.guitartabcreator.com
Instruments
{"strings":[[[".",".",".",".",".",".",".",".",".",".",".",".",".",".",0],[0,0,".",0,".",0,0,0,0,".",0,".",6,6,"."],[5,5,".",5,".",5,5,7,7,".",7,".",7,7,"."],[5,5,".",4,".",4,4,7,7,".",7,".",6,6,"."],[".",".",".",".",".",".",".",".",".",".",".",".",".",".","."],[5,".",5,".",5,".",5,7,".",7,".",0,".",0,"."]],[[".",".",".",".",".",".",".",".",".",".",".",".",".",".",".",".",".",".",".",".",".",".","."],[0,0,".",0,".",0,0,1,1,".",1,".",2,2,3,1,1,1,3,3,3,3,3],[5,5,".",5,".",5,5,2,2,".",2,".",2,2,2,2,2,2,2,2,2,1,1],[5,5,".",5,".",5,5,3,3,".",3,".",3,3,0,0,0,0,3,3,3,3,3],[".",".",".",".",".",".",".",".",".",".",".",".",".",".",3,0,".",".",2,2,2,2,2],[5,".",5,".",5,".",5,3,".",3,".",3,".",3,".",".",3,2,".",".",".",".","."]]],"numberofstrings":6,"notes":["E","B","G","D","A","E","B"],"capo":0,"stringnotes":["E4","B3","G3","D3","A2","E2"],"comments":["Stave 1:","Stave 2:"],"timing":[["W","W","W","W","W","W","W","W","W","W","W","W","W","W","W"],["W","W","W","W","W","W","W","W","W","W","W","W","W","W","W","W","W","W","W","W","W","W","W"]],"timingvisible":false,"tabcounter":22,"stave":1,"totalstaves":2,"instrument":"6guitar","selectedtuning":"6_standard","version":"13"}

Member for

2 months 2 weeks
Submitted by ScrotePope on Mon, 2020-10-05 10:03