Seringueiro Verse

Chords

01234567891011121314151617181920212223
E
B
G
D
A
E
B
0 1 2 3 4 5 6 7 8 9 10 11 12 13 14 15 16 17 18 19 20 21 22 23
(/) Slide Up  (\) Slide Down  (h) Hammer On  (p) Pull Off  (b) Bend (r) Release (v) Vibrato

Stave 1:

E|-----7-----4-----7-----4-----5-----2-----7-----5-----7-----9-----5-----2-------7-----0-------5-----2-
B|-----5-----3-----5-----5-----7-----3-----5-----5-----7-----7-----7-------5-----7-----0-------7-----2-
G|---6-----4-----6-----6-----6-----1-----6-----6-----7-----7-----6-----2-------7-----1-------6-----2---
D|-----------------------------------------------------------------------------------------------------
A|-0-----2-----0-----------0-----------0-----0-----------------0-----0---------------------0-----------
E|-------------------0-----------0-----------------0-----0-------------------0-----0-----0-------0-----

Stave 2:

E|-----5-----5-----2-------5-------2-4---------------------------------
B|-----7-----7-----------4-------2-------0-------3-------2-------2-----
G|---6-----6-----2-----5-------2---------------2-----4-2-----4-2-------
D|-------------0-----4-------2---------2-----4-----------------------2-
A|-0-----0---------------------------4-----2---------------0-------4---
E|-------------------------------------------------0-------------------

							http://www.guitartabcreator.com
Instruments
{"strings":[[[".",".",7,".",".",4,".",".",7,".",".",4,".",".",5,".",".",2,".",".",7,".",".",5,".",".",7,".",".",9,".",".",5,".",".",2,".",".",".",7,".",".",0,".",".",".",5,".",".",2],[".",".",5,".",".",3,".",".",5,".",".",5,".",".",7,".",".",3,".",".",5,".",".",5,".",".",7,".",".",7,".",".",7,".",".",".",5,".",".",7,".",".",0,".",".",".",7,".",".",2],[".",6,".",".",4,".",".",6,".",".",6,".",".",6,".",".",1,".",".",6,".",".",6,".",".",7,".",".",7,".",".",6,".",".",2,".",".",".",7,".",".",1,".",".",".",6,".",".",2,"."],[".",".",".",".",".",".",".",".",".",".",".",".",".",".",".",".",".",".",".",".",".",".",".",".",".",".",".",".",".",".",".",".",".",".",".",".",".",".",".",".",".",".",".",".",".",".",".",".",".","."],[0,".",".",2,".",".",0,".",".",".",".",".",0,".",".",".",".",".",0,".",".",0,".",".",".",".",".",".",".",".",0,".",".",0,".",".",".",".",".",".",".",".",".",".",0,".",".",".",".","."],[".",".",".",".",".",".",".",".",".",0,".",".",".",".",".",0,".",".",".",".",".",".",".",".",0,".",".",0,".",".",".",".",".",".",".",".",".",0,".",".",0,".",".",0,".",".",".",0,".","."]],[[".",".",5,".",".",5,".",".",2,".",".",".",5,".",".",".",2,4,".",".",".",".",".",".",".",".",".",".",".",".",".",".",".","."],[".",".",7,".",".",7,".",".",".",".",".",4,".",".",".",2,".",".",".",0,".",".",".",3,".",".",".",2,".",".",".",2,".","."],[".",6,".",".",6,".",".",2,".",".",5,".",".",".",2,".",".",".",".",".",".",".",2,".",".",4,2,".",".",4,2,".",".","."],[".",".",".",".",".",".",0,".",".",4,".",".",".",2,".",".",".",".",2,".",".",4,".",".",".",".",".",".",".",".",".",".",".",2],[0,".",".",0,".",".",".",".",".",".",".",".",".",".",".",".",".",4,".",".",2,".",".",".",".",".",".",".",0,".",".",".",4,"."],[".",".",".",".",".",".",".",".",".",".",".",".",".",".",".",".",".",".",".",".",".",".",".",".",0,".",".",".",".",".",".",".",".","."]]],"numberofstrings":6,"notes":["E","B","G","D","A","E","B"],"capo":0,"stringnotes":["E4","B3","G3","D3","A2","E2"],"comments":["Stave 1:","Stave 2:"],"timing":[["W","W","W","W","W","W","W","W","W","W","W","W","W","W","W","W","W","W","W","W","W","W","W","W","W","W","W","W","W","W","W","W","W","W","W","W","W","W","W","W","W","W","W","W","W","W","W","W","W","W","W"],["W","W","W","W","W","W","W","W","W","W","W","W","W","W","W","W","W","W","W","W","W","W","W","W","W","W","W","W","W","W","W","W","W","W"]],"timingvisible":false,"tabcounter":34,"stave":1,"totalstaves":2,"instrument":"6guitar","selectedtuning":"6_standard","version":"13"}

Member for

1 week 3 days
Submitted by ScrotePope on Wed, 2020-09-16 05:26