Sound will begin in 5 seconds

Malformed Almighty (solo)

01234567891011121314151617181920212223
E
B
G
D
A
E
B
0 1 2 3 4 5 6 7 8 9 10 11 12 13 14 15 16 17 18 19 20 21 22 23
Song Science #1: How Pros Use 6 Chords to Write Hit Songs
(/) Slide Up  (\) Slide Down  (h) Hammer On  (p) Pull Off  (b) Bend (r) Release (v) Vibrato

Stave 1:

D|------------------------------------------------------
A|------------------------------------------------------
F|--------------------------------------------5--7--12--
C|-----------------5-----5--7--5--7--8--7--8------------
G|--5--7--8--7--8-----8---------------------------------
C|------------------------------------------------------

Stave 2:

D|--------------------------------------------------------------11--8-------------------------------
A|--------------------------------------13------------------13---------10--------------------10--8--
F|--12--15--14--12--11--------------15------15--14--11--14-----------------11--8------8--11---------
C|----------------------13--12--13------------------------------------------------10----------------
G|--------------------------------------------------------------------------------------------------
C|--------------------------------------------------------------------------------------------------

Stave 3:

D|---------------------------------------------------6------6--8--
A|--8---------8--10--11--8------10--6--8--10--8--10-----10--------
F|-----10--7----------------10------------------------------------
C|----------------------------------------------------------------
G|----------------------------------------------------------------
C|----------------------------------------------------------------

Stave 4:

D|--8---------------------8------------------11--14--12--14--15--
A|-----11--10---------10-----10----------13----------------------
F|-------------8--11-------------11--14--------------------------
C|---------------------------------------------------------------
G|---------------------------------------------------------------
C|---------------------------------------------------------------

http://www.guitartabcreator.com
Guitar Tab Creator is intended to store guitar tab created through the tool. It currently does not support in-line text editing. Any text you place in here will be lost. If you need to comment on your tab, please use the "Tab Notes" section located below.