Sunshine of Your Love - Main Riff

01234567891011121314151617181920212223
E
B
G
D
A
E
B
0 1 2 3 4 5 6 7 8 9 10 11 12 13 14 15 16 17 18 19 20 21 22 23
(/) Slide Up  (\) Slide Down  (h) Hammer On  (p) Pull Off  (b) Bend (r) Release (v) Vibrato

Stave 1:

E|------------------------------------------
B|------------------------------------------
G|------------------------------------------
D|--12--12--10--12--------------------------
A|------------------12--11--10--------------
E|------------------------------10--13--10--

Stave 2:

E|---------------------------------
B|---------------------------------
G|--9--9--7--9---------------------
D|--------------9--8--7------------
A|-----------------------7--10--7--
E|---------------------------------

							http://www.guitartabcreator.com
Chords

Instruments
{"strings":[[[".",".",".",".",".",".",".",".",".","."],[".",".",".",".",".",".",".",".",".","."],[".",".",".",".",".",".",".",".",".","."],[12,12,10,12,".",".",".",".",".","."],[".",".",".",".",12,11,10,".",".","."],[".",".",".",".",".",".",".",10,13,10]],[[".",".",".",".",".",".",".",".",".","."],[".",".",".",".",".",".",".",".",".","."],[9,9,7,9,".",".",".",".",".","."],[".",".",".",".",9,8,7,".",".","."],[".",".",".",".",".",".",".",7,10,7],[".",".",".",".",".",".",".",".",".","."]]],"numberofstrings":6,"notes":["E","B","G","D","A","E","B"],"capo":0,"stringnotes":["E4","B3","G3","D3","A2","E2"],"comments":["Stave 1:","Stave 2:"],"timing":[["W","W","W","W","W","W","W","W","W","W"],["W","W","W","W","W","W","W","W","W","W"]],"timingvisible":false,"tabcounter":10,"stave":1,"totalstaves":2,"instrument":"6guitar","selectedtuning":"6_standard","version":"13"}

Member for

4 months
Submitted by Scotty2Hotty98 on Mon, 2021-10-25 21:52