PAUL GILBERT Two String Pattern

01234567891011121314151617181920212223
E
B
G
D
A
E
B
0 1 2 3 4 5 6 7 8 9 10 11 12 13 14 15 16 17 18 19 20 21 22 23
(/) Slide Up  (\) Slide Down  (h) Hammer On  (p) Pull Off  (b) Bend (r) Release (v) Vibrato

Stave 1:

E|--------------12----------------------12--------------
B|--12--13--15------15--13--12--13--15------15--13--12--
G|------------------------------------------------------
D|------------------------------------------------------
A|------------------------------------------------------
E|------------------------------------------------------

Stave 2:

E|--------------12----------------------12--14--15--14--12--------------
B|--12--13--15------15--13--12--13--15----------------------15--13--12--
G|----------------------------------------------------------------------
D|----------------------------------------------------------------------
A|----------------------------------------------------------------------
E|----------------------------------------------------------------------

							http://www.guitartabcreator.com
Chords

Tab Notes
The second pattern is a variation of the first trying to incorporporate the ring finger and build muscle memory for the two shapes.
Instruments
{"strings":[[[".",".",".",12,".",".",".",".",".",12,".",".","."],[12,13,15,".",15,13,12,13,15,".",15,13,12],[".",".",".",".",".",".",".",".",".",".",".",".","."],[".",".",".",".",".",".",".",".",".",".",".",".","."],[".",".",".",".",".",".",".",".",".",".",".",".","."],[".",".",".",".",".",".",".",".",".",".",".",".","."]],[[".",".",".",12,".",".",".",".",".",12,14,15,14,12,".",".","."],[12,13,15,".",15,13,12,13,15,".",".",".",".",".",15,13,12],[".",".",".",".",".",".",".",".",".",".",".",".",".",".",".",".","."],[".",".",".",".",".",".",".",".",".",".",".",".",".",".",".",".","."],[".",".",".",".",".",".",".",".",".",".",".",".",".",".",".",".","."],[".",".",".",".",".",".",".",".",".",".",".",".",".",".",".",".","."]]],"numberofstrings":6,"notes":["E","B","G","D","A","E","B"],"capo":0,"stringnotes":["E4","B3","G3","D3","A2","E2"],"comments":["Stave 1:","Stave 2:"],"timing":[["W","W","W","W","W","W","W","W","W","W","W","W","W"],["W","W","W","W","W","W","W","W","W","W","W","W","W","W","W","W","W"]],"timingvisible":false,"tabcounter":17,"stave":1,"totalstaves":2,"instrument":"6guitar","selectedtuning":"6_standard","version":"13"}

Member for

4 months
Submitted by Scotty2Hotty98 on Tue, 2021-09-14 16:25