Minor, Major, Harmonic Minor, Mixolydian - Three string patterns

01234567891011121314151617181920212223
E
B
G
D
A
E
B
0 1 2 3 4 5 6 7 8 9 10 11 12 13 14 15 16 17 18 19 20 21 22 23
(/) Slide Up  (\) Slide Down  (h) Hammer On  (p) Pull Off  (b) Bend (r) Release (v) Vibrato

Stave 1:

E|-----------------------------------------------------
B|-----------------------------------------------------
G|-----------------------------------------------------
D|--------------------5--7--9--7--5--------------------
A|-----------5--7--8-----------------8--7--5-----------
E|--5--7--8-----------------------------------8--7--5--

Stave 2:

E|-----------------------------------------------------
B|-----------------------------------------------------
G|-----------------------------------------------------
D|--------------------6--7--9--7--6--------------------
A|-----------5--7--9-----------------9--7--5-----------
E|--5--7--9-----------------------------------9--7--5--

Stave 3:

E|--------------------------------------------------------
B|--------------------------------------------------------
G|--------------------------------------------------------
D|--------------------6--6--7--9--7--6--------------------
A|-----------5--7--8--------------------8--7--5-----------
E|--5--7--8--------------------------------------8--7--5--

Stave 4:

E|-----------------------------------------------------
B|-----------------------------------------------------
G|-----------------------------------------------------
D|--------------------5--7--9--7--5--------------------
A|-----------5--7--9-----------------9--7--5-----------
E|--5--7--9-----------------------------------9--7--5--

							http://www.guitartabcreator.com
Chords

Instruments
{"strings":[[[".",".",".",".",".",".",".",".",".",".",".",".",".",".",".",".","."],[".",".",".",".",".",".",".",".",".",".",".",".",".",".",".",".","."],[".",".",".",".",".",".",".",".",".",".",".",".",".",".",".",".","."],[".",".",".",".",".",".",5,7,9,7,5,".",".",".",".",".","."],[".",".",".",5,7,8,".",".",".",".",".",8,7,5,".",".","."],[5,7,8,".",".",".",".",".",".",".",".",".",".",".",8,7,5]],[[".",".",".",".",".",".",".",".",".",".",".",".",".",".",".",".","."],[".",".",".",".",".",".",".",".",".",".",".",".",".",".",".",".","."],[".",".",".",".",".",".",".",".",".",".",".",".",".",".",".",".","."],[".",".",".",".",".",".",6,7,9,7,6,".",".",".",".",".","."],[".",".",".",5,7,9,".",".",".",".",".",9,7,5,".",".","."],[5,7,9,".",".",".",".",".",".",".",".",".",".",".",9,7,5]],[[".",".",".",".",".",".",".",".",".",".",".",".",".",".",".",".",".","."],[".",".",".",".",".",".",".",".",".",".",".",".",".",".",".",".",".","."],[".",".",".",".",".",".",".",".",".",".",".",".",".",".",".",".",".","."],[".",".",".",".",".",".",6,6,7,9,7,6,".",".",".",".",".","."],[".",".",".",5,7,8,".",".",".",".",".",".",8,7,5,".",".","."],[5,7,8,".",".",".",".",".",".",".",".",".",".",".",".",8,7,5]],[[".",".",".",".",".",".",".",".",".",".",".",".",".",".",".",".","."],[".",".",".",".",".",".",".",".",".",".",".",".",".",".",".",".","."],[".",".",".",".",".",".",".",".",".",".",".",".",".",".",".",".","."],[".",".",".",".",".",".",5,7,9,7,5,".",".",".",".",".","."],[".",".",".",5,7,9,".",".",".",".",".",9,7,5,".",".","."],[5,7,9,".",".",".",".",".",".",".",".",".",".",".",9,7,5]]],"numberofstrings":6,"notes":["E","B","G","D","A","E","B"],"capo":0,"stringnotes":["E4","B3","G3","D3","A2","E2"],"comments":["Stave 1:","Stave 2:","Stave 3:","Stave 4:"],"timing":[["W","W","W","W","W","W","W","W","W","W","W","W","W","W","W","W","W"],["W","W","W","W","W","W","W","W","W","W","W","W","W","W","W","W","W"],["W","W","W","W","W","W","W","W","W","W","W","W","W","W","W","W","W","W"],["W","W","W","W","W","W","W","W","W","W","W","W","W","W","W","W","W"]],"timingvisible":false,"tabcounter":17,"stave":3,"totalstaves":4,"instrument":"6guitar","selectedtuning":"6_standard","version":"13"}

Member for

4 months
Submitted by Scotty2Hotty98 on Wed, 2021-11-17 07:56