Major and Minor on Bass

01234567891011121314151617181920212223
E
B
G
D
A
E
B
0 1 2 3 4 5 6 7 8 9 10 11 12 13 14 15 16 17 18 19 20 21 22 23
(/) Slide Up  (\) Slide Down  (h) Hammer On  (p) Pull Off  (b) Bend (r) Release (v) Vibrato

Stave 1:

G|-----------------------------------------------
D|--------------------0--2--0--------------------
A|-----------0--2--3-----------3--2--0-----------
E|--0--2--3-----------------------------3--2--0--

Stave 2:

G|-----------------------------
D|-----------------------------
A|-----------0--2--0-----------
E|--0--2--4-----------4--2--0--

							http://www.guitartabcreator.com
Chords

Instruments
{"strings":[[[".",".",".",".",".",".",".",".",".",".",".",".",".",".","."],[".",".",".",".",".",".",0,2,0,".",".",".",".",".","."],[".",".",".",0,2,3,".",".",".",3,2,0,".",".","."],[0,2,3,".",".",".",".",".",".",".",".",".",3,2,0]],[[".",".",".",".",".",".",".",".","."],[".",".",".",".",".",".",".",".","."],[".",".",".",0,2,0,".",".","."],[0,2,4,".",".",".",4,2,0]]],"numberofstrings":4,"notes":["G","D","A","E"],"capo":0,"stringnotes":["G2","D2","A1","E1"],"comments":["Stave 1:","Stave 2:"],"timing":[["W","W","W","W","W","W","W","W","W","W","W","W","W","W","W"],["W","W","W","W","W","W","W","W","W"]],"timingvisible":false,"tabcounter":9,"stave":1,"totalstaves":2,"instrument":"4bass","selectedtuning":"4bass","version":"13"}

Member for

4 months
Submitted by Scotty2Hotty98 on Tue, 2021-11-16 11:56