Harmonic minor patterns

01234567891011121314151617181920212223
E
B
G
D
A
E
B
0 1 2 3 4 5 6 7 8 9 10 11 12 13 14 15 16 17 18 19 20 21 22 23
(/) Slide Up  (\) Slide Down  (h) Hammer On  (p) Pull Off  (b) Bend (r) Release (v) Vibrato

Stave 1:

E|--13--10--12--13--12--10-----------------------------------------------------------------------------------------------------
B|--------------------------12--9--10--12--10--9-------------------------------------------------------------------------------
G|------------------------------------------------10--7--9--10--9--7-----------------------------------------------------------
D|--------------------------------------------------------------------9--6--7--9--7--6-----------------------------------------
A|--------------------------------------------------------------------------------------8--5--7--8--7--5-----------------------
E|--------------------------------------------------------------------------------------------------------7--4--5--7--5--4--0--

Stave 2:

E|--20--19--17--16----------------------------------------------------------
B|------------------18--17--15----------------------------------------------
G|------------------------------17--16--14--13------------------------------
D|----------------------------------------------15--14--12------------------
A|----------------------------------------------------------15--14--12--11--
E|--------------------------------------------------------------------------

							http://www.guitartabcreator.com
Chords

Instruments
{"strings":[[[13,10,12,13,12,10,".",".",".",".",".",".",".",".",".",".",".",".",".",".",".",".",".",".",".",".",".",".",".",".",".",".",".",".",".",".","."],[".",".",".",".",".",".",12,9,10,12,10,9,".",".",".",".",".",".",".",".",".",".",".",".",".",".",".",".",".",".",".",".",".",".",".",".","."],[".",".",".",".",".",".",".",".",".",".",".",".",10,7,9,10,9,7,".",".",".",".",".",".",".",".",".",".",".",".",".",".",".",".",".",".","."],[".",".",".",".",".",".",".",".",".",".",".",".",".",".",".",".",".",".",9,6,7,9,7,6,".",".",".",".",".",".",".",".",".",".",".",".","."],[".",".",".",".",".",".",".",".",".",".",".",".",".",".",".",".",".",".",".",".",".",".",".",".",8,5,7,8,7,5,".",".",".",".",".",".","."],[".",".",".",".",".",".",".",".",".",".",".",".",".",".",".",".",".",".",".",".",".",".",".",".",".",".",".",".",".",".",7,4,5,7,5,4,0]],[[20,19,17,16,".",".",".",".",".",".",".",".",".",".",".",".",".","."],[".",".",".",".",18,17,15,".",".",".",".",".",".",".",".",".",".","."],[".",".",".",".",".",".",".",17,16,14,13,".",".",".",".",".",".","."],[".",".",".",".",".",".",".",".",".",".",".",15,14,12,".",".",".","."],[".",".",".",".",".",".",".",".",".",".",".",".",".",".",15,14,12,11],[".",".",".",".",".",".",".",".",".",".",".",".",".",".",".",".",".","."]]],"numberofstrings":6,"notes":["E","B","G","D","A","E","B"],"capo":0,"stringnotes":["E4","B3","G3","D3","A2","E2"],"comments":["Stave 1:","Stave 2:"],"timing":[["W","W","W","W","W","W","W","W","W","W","W","W","W","W","W","W","W","W","W","W","W","W","W","W","W","W","W","W","W","W","W","W","W","W","W","W","W"],["W","W","W","W","W","W","W","W","W","W","W","W","W","W","W","W","W","W"]],"timingvisible":false,"tabcounter":18,"stave":1,"totalstaves":2,"instrument":"6guitar","selectedtuning":"6_standard","version":"13"}

Member for

4 months
Submitted by Scotty2Hotty98 on Wed, 2021-11-03 10:41