Fast Picking and legato Triplet Pattern + E Pentatonic Blues Lick

01234567891011121314151617181920212223
E
B
G
D
A
E
B
0 1 2 3 4 5 6 7 8 9 10 11 12 13 14 15 16 17 18 19 20 21 22 23
(/) Slide Up  (\) Slide Down  (h) Hammer On  (p) Pull Off  (b) Bend (r) Release (v) Vibrato

Stave 1:

E|--15--12--14--15p14p12--|--15--12--14--15p14p12--|--
B|------------------------|------------------------|--
G|------------------------|------------------------|--
D|------------------------|------------------------|--
A|------------------------|------------------------|--
E|------------------------|------------------------|--

Stave 2:

E|--15--12--14--15p14--12---------------------------------------------------
B|-------------------------15--12--14--15p14p12-----------------------------
G|-----------------------------------------------15--12--14--15p14p12-------
D|---------------------------------------------------------------------14v--
A|--------------------------------------------------------------------------
E|--------------------------------------------------------------------------

							http://www.guitartabcreator.com
Chords

Tab Notes
Nice simple pattern good for building up speed
Instruments
{"strings":[[[15,12,14,15,"p",14,"p",12,"|",15,12,14,15,"p",14,"p",12,"|"],[".",".",".",".",".",".",".",".","|",".",".",".",".",".",".",".",".","|"],[".",".",".",".",".",".",".",".","|",".",".",".",".",".",".",".",".","|"],[".",".",".",".",".",".",".",".","|",".",".",".",".",".",".",".",".","|"],[".",".",".",".",".",".",".",".","|",".",".",".",".",".",".",".",".","|"],[".",".",".",".",".",".",".",".","|",".",".",".",".",".",".",".",".","|"]],[[15,12,14,15,"p",14,12,".",".",".",".",".",".",".",".",".",".",".",".",".",".",".",".",".","."],[".",".",".",".",".",".",".",15,12,14,15,"p",14,"p",12,".",".",".",".",".",".",".",".",".","."],[".",".",".",".",".",".",".",".",".",".",".",".",".",".",".",15,12,14,15,"p",14,"p",12,".","."],[".",".",".",".",".",".",".",".",".",".",".",".",".",".",".",".",".",".",".",".",".",".",".",14,"v"],[".",".",".",".",".",".",".",".",".",".",".",".",".",".",".",".",".",".",".",".",".",".",".",".","."],[".",".",".",".",".",".",".",".",".",".",".",".",".",".",".",".",".",".",".",".",".",".",".",".","."]]],"numberofstrings":6,"notes":["E","B","G","D","A","E","B"],"capo":0,"stringnotes":["E4","B3","G3","D3","A2","E2"],"comments":["Stave 1:","Stave 2:"],"timing":[["W","W","W","W",null,"W",null,"W",null,"W","W","W","W",null,"W",null,"W"],["W","W","W","W",null,"W","W","W","W","W","W",null,"W",null,"W","W","W","W","W",null,"W",null,"W","W"]],"timingvisible":false,"tabcounter":25,"stave":1,"totalstaves":2,"instrument":"6guitar","selectedtuning":"6_standard","version":"13"}

Member for

4 months
Submitted by Scotty2Hotty98 on Tue, 2021-09-14 17:09