3 strings, 3 positions, Sweep pick Excercises in A major and A minor

01234567891011121314151617181920212223
E
B
G
D
A
E
B
0 1 2 3 4 5 6 7 8 9 10 11 12 13 14 15 16 17 18 19 20 21 22 23
(/) Slide Up  (\) Slide Down  (h) Hammer On  (p) Pull Off  (b) Bend (r) Release (v) Vibrato

Stave 1:

E|--12p9-------------9--12p9-------------9--12--|--17p12--------------12--17p12--------------12--17--|--21p17--------------17--21--
B|--------10-----10-----------10-----10---------|---------14------14-------------14------14----------|---------17------17----------
G|------------9-------------------9-------------|-------------14---------------------14--------------|-------------18--------------
D|----------------------------------------------|----------------------------------------------------|-----------------------------
A|----------------------------------------------|----------------------------------------------------|-----------------------------
E|----------------------------------------------|----------------------------------------------------|-----------------------------

Stave 2:

E|--12p8-------------8--12p8-------------8--12/17p12--------------12--17p12--------------12--17/20p17--------------17--20--
B|--------10-----10-----------10-----10---------------13------13-------------13------13----------------17------17----------
G|------------9-------------------9-----------------------14---------------------14------------------------17--------------
D|-------------------------------------------------------------------------------------------------------------------------
A|-------------------------------------------------------------------------------------------------------------------------
E|-------------------------------------------------------------------------------------------------------------------------

							http://www.guitartabcreator.com
Chords

Tab Notes
go slow and try to get every note clear and precise, dont worry about playing combining the positions all at once, just try to play each of the 3 major and minor patterns individually!
Instruments
{"strings":[[[12,"p",9,".",".",".",9,12,"p",9,".",".",".",9,12,"|",17,"p",12,".",".",".",12,17,"p",12,".",".",".",12,17,"|",21,"p",17,".",".",".",17,21],[".",".",".",10,".",10,".",".",".",".",10,".",10,".",".","|",".",".",".",14,".",14,".",".",".",".",14,".",14,".",".","|",".",".",".",17,".",17,".","."],[".",".",".",".",9,".",".",".",".",".",".",9,".",".",".","|",".",".",".",".",14,".",".",".",".",".",".",14,".",".",".","|",".",".",".",".",18,".",".","."],[".",".",".",".",".",".",".",".",".",".",".",".",".",".",".","|",".",".",".",".",".",".",".",".",".",".",".",".",".",".",".","|",".",".",".",".",".",".",".","."],[".",".",".",".",".",".",".",".",".",".",".",".",".",".",".","|",".",".",".",".",".",".",".",".",".",".",".",".",".",".",".","|",".",".",".",".",".",".",".","."],[".",".",".",".",".",".",".",".",".",".",".",".",".",".",".","|",".",".",".",".",".",".",".",".",".",".",".",".",".",".",".","|",".",".",".",".",".",".",".","."]],[[12,"p",8,".",".",".",8,12,"p",8,".",".",".",8,12,"/",17,"p",12,".",".",".",12,17,"p",12,".",".",".",12,17,"/",20,"p",17,".",".",".",17,20],[".",".",".",10,".",10,".",".",".",".",10,".",10,".",".",".",".",".",".",13,".",13,".",".",".",".",13,".",13,".",".",".",".",".",".",17,".",17,".","."],[".",".",".",".",9,".",".",".",".",".",".",9,".",".",".",".",".",".",".",".",14,".",".",".",".",".",".",14,".",".",".",".",".",".",".",".",17,".",".","."],[".",".",".",".",".",".",".",".",".",".",".",".",".",".",".",".",".",".",".",".",".",".",".",".",".",".",".",".",".",".",".",".",".",".",".",".",".",".",".","."],[".",".",".",".",".",".",".",".",".",".",".",".",".",".",".",".",".",".",".",".",".",".",".",".",".",".",".",".",".",".",".",".",".",".",".",".",".",".",".","."],[".",".",".",".",".",".",".",".",".",".",".",".",".",".",".",".",".",".",".",".",".",".",".",".",".",".",".",".",".",".",".",".",".",".",".",".",".",".",".","."]]],"numberofstrings":6,"notes":["E","B","G","D","A","E","B"],"capo":0,"stringnotes":["E4","B3","G3","D3","A2","E2"],"comments":["Stave 1:","Stave 2:"],"timing":[["W",null,"W","W","W","W","W","W",null,"W","W","W","W","W","W",null,"W",null,"W","W","W","W","W","W",null,"W","W","W","W","W","W",null,"W",null,"W","W","W","W","W","W"],["W",null,"W","W","W","W","W","W",null,"W","W","W","W","W","W",null,"W",null,"W","W","W","W","W","W",null,"W","W","W","W","W","W",null,"W",null,"W","W","W","W","W","W"]],"timingvisible":false,"tabcounter":40,"stave":1,"totalstaves":2,"instrument":"6guitar","selectedtuning":"6_standard","version":"13"}

Member for

4 months
Submitted by Scotty2Hotty98 on Tue, 2021-09-14 17:02