Sound will begin in 5 seconds

runaway train solo

01234567891011121314151617181920212223
E
B
G
D
A
E
B
0 1 2 3 4 5 6 7 8 9 10 11 12 13 14 15 16 17 18 19 20 21 22 23
Song Science #1: How Pros Use 6 Chords to Write Hit Songs
(/) Slide Up  (\) Slide Down  (h) Hammer On  (p) Pull Off  (b) Bend (r) Release (v) Vibrato

Stave 1:

E|------------0--------10-----10--10p0-----------------0--------10-----10--10p0------------------8---------
B|------8--------8---------8------------8--------8--------8---------8------------8--------10--------10-----
G|---------0--------0----------------------0--------0--------0----------------------0--9------9---------9--
D|--10----------------------------------------9------------------------------------------------------------
A|---------------------------------------------------------------------------------------------------------
E|---------------------------------------------------------------------------------------------------------

Stave 2:

E|--10------10--10p8------------3-----5p3-----5-----5--5p3----------5-----6p5----------7-----8p7--------
B|------10------------10-----------3-------3-----3----------3------------------6------------------8-----
G|------------------------9--0---------------------------------0/5-----5----------5/7-----7----------7--
D|------------------------------------------------------------------------------------------------------
A|------------------------------------------------------------------------------------------------------
E|------------------------------------------------------------------------------------------------------

Stave 3:

E|-----3-----5p3-----------5-----7p5-----------5-----6p5-----------3-----5p3-----5-----5--5p3--------
B|--------3-------3-----------5-------5-------------------6-----------3-------3-----3----------3-----
G|--0----------------0----------------------5-----5----------5--0---------------------------------0--
D|----------------------7----------------7-----------------------------------------------------------
A|---------------------------------------------------------------------------------------------------
E|---------------------------------------------------------------------------------------------------

http://www.guitartabcreator.com
Guitar Tab Creator is intended to store guitar tab created through the tool. It currently does not support in-line text editing. Any text you place in here will be lost. If you need to comment on your tab, please use the "Tab Notes" section located below.