Sound will begin in 5 seconds

1

Chords
01234567891011121314151617181920212223
E
B
G
D
A
E
B
0 1 2 3 4 5 6 7 8 9 10 11 12 13 14 15 16 17 18 19 20 21 22 23
Song Science #1: How Pros Use 6 Chords to Write Hit Songs
(/) Slide Up  (\) Slide Down  (h) Hammer On  (p) Pull Off  (b) Bend (r) Release (v) Vibrato

Stave 1:

E|----------------------------
B|--11--9--11--11--9--11--12--
G|----------------------------
D|----------------------------
A|----------------------------
E|----------------------------

Stave 2:

E|----------------------------
B|--11--9--11--11--9--11--12--
G|----------------------------
D|----------------------------
A|----------------------------
E|----------------------------

Stave 3:

E|----------------------------
B|--11--9--11--11--9--11--12--
G|----------------------------
D|----------------------------
A|----------------------------
E|----------------------------

Stave 4:

E|-------------------------
B|--9----------------------
G|-----11--9---------------
D|------------11--9--9--9--
A|-------------------------
E|-------------------------

Stave 5:

E|--------------------------------------
B|--------------------------------------
G|--------------------------------------
D|--------9--9--9--9--9--9--9--9--9--9--
A|-----9-----9--9--9--9--9--9--9--9--9--
E|--7--------7--7--7--7--7--7--7--7--7--

Stave 6:

E|-----------
B|-----------
G|-----------
D|--7--7--7--
A|--7--7--7--
E|--5--5--5--

Stave 7:

E|-----------
B|-----------
G|-----------
D|--9--9--9--
A|--9--9--9--
E|--7--7--7--

Stave 8:

E|-----------
B|-----------
G|-----------
D|--7--7--7--
A|--7--7--7--
E|--5--5--5--

Stave 9:

E|--------------------
B|--------------------
G|--------------------
D|--5--5--5--5--5--5--
A|--5--5--5--5--5--5--
E|--3--3--3--3--3--3--

Stave 10:

E|-----------------------------
B|-----------------------------
G|-----------------------------
D|-----3--------5--------7-----
A|--3-----3--5-----5--7-----7--
E|-----------------------------

http://www.guitartabcreator.com
Guitar Tab Creator is intended to store guitar tab created through the tool. It currently does not support in-line text editing. Any text you place in here will be lost. If you need to comment on your tab, please use the "Tab Notes" section located below.