Sound will begin in 5 seconds

Spooky

Chords
01234567891011121314151617181920212223
E
B
G
D
A
E
B
0 1 2 3 4 5 6 7 8 9 10 11 12 13 14 15 16 17 18 19 20 21 22 23
(/) Slide Up  (\) Slide Down  (h) Hammer On  (p) Pull Off  (b) Bend (r) Release (v) Vibrato

Chords

E|--7--7--x--3--
B|--7--8--7--2--
G|--7--7--6--3--
D|--7--9--5--2--
A|--x--7--x-----
E|--7--x--x-----

Chords Modulated Half Fret

E|--8--8---x--4--
B|--8--9---8--3--
G|--8--8---7--4--
D|--8--10--6--3--
A|--x--8---x-----
E|--8--x---x-----

							http://www.guitartabcreator.com
Note:
Guitar Tab Creator is intended to store guitar tab created through the tool. It currently does not support in-line text editing. Any text you place in here will be lost. If you need to comment on your tab, please use the "Tab Notes" section located below.