Paul Desmond - A Taste of Honey

01234567891011121314151617181920212223
E
B
G
D
A
E
B
0 1 2 3 4 5 6 7 8 9 10 11 12 13 14 15 16 17 18 19 20 21 22 23
(/) Slide Up  (\) Slide Down  (h) Hammer On  (p) Pull Off  (b) Bend (r) Release (v) Vibrato

Intro (2x)

E|-----------------|-----------------|-----------------|-----------------|--
B|-----1--------1--|-----1--------1--|-----1--------1--|--1--------4-----|--
G|-----1--------1--|-----1--------1--|-----1--------1--|--1--------3-----|--
D|--3--------3-----|--2--------2-----|--1--------1-----|--0--------------|--
A|-----------------|-----------------|-----------------|-----------3-----|--
E|-----------------|-----------------|-----------------|-----------------|--

Verse 1 (2x)

E|-----------------|-----------------|-----------------|-----------------|--
B|-----1--------1--|-----1--------1--|-----1--------1--|-----1--------1--|--
G|-----1--------1--|-----1--------1--|-----1--------1--|-----1--------1--|--
D|--3--------3-----|--2--------2-----|--1--------1-----|--0--------0-----|--
A|-----------------|-----------------|-----------------|-----------------|--
E|-----------------|-----------------|-----------------|-----------------|--

Stave 3:

E|--
B|--
G|--
D|--
A|--
E|--

							http://www.guitartabcreator.com
Chords

Instruments
{"strings":[[[".",".","_",".",".","|",".",".","_",".",".","|",".",".","_",".",".","|",".","_","_",".","_","|"],[".",1,"_",".",1,"|",".",1,"_",".",1,"|",".",1,"_",".",1,"|",1,"_","_",4,"_","|"],[".",1,"_",".",1,"|",".",1,"_",".",1,"|",".",1,"_",".",1,"|",1,"_","_",3,"_","|"],[3,".","_",3,".","|",2,".","_",2,".","|",1,".","_",1,".","|",0,"_","_",".","_","|"],[".",".","_",".",".","|",".",".","_",".",".","|",".",".","_",".",".","|",".","_","_",3,"_","|"],[".",".","_",".",".","|",".",".","_",".",".","|",".",".","_",".",".","|",".","_","_",".","_","|"]],[[".",".","_",".",".","|",".",".","_",".",".","|",".",".","_",".",".","|",".",".","_",".",".","|"],[".",1,"_",".",1,"|",".",1,"_",".",1,"|",".",1,"_",".",1,"|",".",1,"_",".",1,"|"],[".",1,"_",".",1,"|",".",1,"_",".",1,"|",".",1,"_",".",1,"|",".",1,"_",".",1,"|"],[3,".","_",3,".","|",2,".","_",2,".","|",1,".","_",1,".","|",0,".","_",0,".","|"],[".",".","_",".",".","|",".",".","_",".",".","|",".",".","_",".",".","|",".",".","_",".",".","|"],[".",".","_",".",".","|",".",".","_",".",".","|",".",".","_",".",".","|",".",".","_",".",".","|"]],[[],[],[],[],[],[]]],"numberofstrings":6,"notes":["E","B","G","D","A","E","B"],"capo":0,"stringnotes":["E4","B3","G3","D3","A2","E2"],"comments":["Intro (2x)","Verse 1 (2x)","Stave 3:"],"timing":[["W","W","W","W","W","W","W","W","W","W","W",null,"W","W","W","W","W",null,"W",null,null,"W","W",null,"W"],["W","W",null,"W","W",null,"W","W",null,"W","W",null,"W","W",null,"W","W",null,"W","W",null,"W","W"],[]],"timingvisible":false,"tabcounter":0,"stave":2,"totalstaves":3,"instrument":"6guitar","selectedtuning":"6_standard","version":"13"}

Member for

1 week 6 days
Submitted by scosta on Sun, 2021-01-10 17:10