Sound will begin in 5 seconds

Si Baeg Si Mor

Chords
01234567891011121314151617181920212223
E
B
G
D
A
E
B
0 1 2 3 4 5 6 7 8 9 10 11 12 13 14 15 16 17 18 19 20 21 22 23
(/) Slide Up  (\) Slide Down  (h) Hammer On  (p) Pull Off  (b) Bend (r) Release (v) Vibrato

Stave 1:

D|-------0--------------------------0----------------------0--------------------------
A|----------0-----------0--------0-----0----------------------0-----------------------
G|-------------0-----0--------0-----------0-----0----------------0-----0--------------
D|--2/4-----------4--------2-----------------2-----2/4--------------4-----2-----------
G|------------------------------------------------------------------------------------
D|------------------------------------------------------------------------------------

Stave 2:

D|--------0--2--4-----------0-----2--0----------------------
A|--------------5-----7--5--0-----------2-------------------
G|-----------------------0--------------0-----2p0-----0--2--
D|-----4--------0-----------4--------------0-------4--------
G|--------------------------------------0-------------------
D|--0--------------0-----------0-----4-------------0--2--4--

Stave 3:

D|--------------0----------------
A|--2--0--2--4-----7--------5h7--
G|-----------------------0-------
D|--------------------0----------
G|--0----------------------------
D|-----------------7-------------

Stave 4:

D|-------------0--------
A|--7/9-----7-----------
G|-------------2-----0--
D|-------0--------0-----
G|----------6--4--------
D|--0-------------------

Stave 5:

D|--4-----------------2-----
A|-----------------0-----0--
G|-----4--------4-----------
D|-----------0--------------
G|--------0-----------------
D|--------------------------

Stave 6:

D|--------------0--
A|-----------0-----
G|--------0--------
D|-----4-----------
G|-----------------
D|--4--------------

Stave 7:

D|-------------------------------0--
A|----------------------------0-----
G|----------0--------------0--------
D|--2/4--4-----4\2p0----------------
G|--------------------2/4-----------
D|--0-------------------------------

Stave 8:

D|--------------0--------0-----------------
A|-----------0-----4--------0--------------
G|--------0--------------------0-----0-----
D|-----4--------------------------0-----4--
G|-----------------------------------------
D|--4-----------------0-----------------0--

Stave 9:

D|----------------0----------------
A|--2h4p2p0h2--4-----7--------5h7--
G|-------------------------0-------
D|----------------------0----------
G|--0------------------------------
D|-------------------7-------------

Stave 10:

D|----------7--0--------
A|--7/9-----------------
G|-------------2-----0--
D|-------0--------0-----
G|----------6--4--------
D|--0-------------------

Stave 11:

D|--------0--2--4h5p4----------------------7--9----------4--------0--
A|--------------5------7--5-----7-----7/9-----10-----12--5-----7-----
G|---------------------------------7---------------------4-----------
D|-----4--------0---------------------------------0---------4--------
G|--------------------------------------------0----------4-----------
D|--0------------------------0---------------------------------------

Stave 12:

D|--------7--4--------0----------------0-----------
A|-----------5-----7-----------2p0--2-----0--------
G|--7--6-----4--------------0----------------0-----
D|--7-----------4--------0----------------------0--
G|-----------4--------0-------------0--------------
D|-------------------------------------------------

Stave 13:

D|----------------------------0--
A|-------0-----------------------
G|-------------------------0-----
D|--2/4-----4p2p0-------0--------
G|-----------------2/4-----------
D|--0----------------------------

Stave 14:

D|----------------0--
A|-------------0-----
G|----------0--------
D|-----0h4-----------
G|-------------------
D|--4----------------

Stave 15:

D|--9----------------0--------7--
A|--10--12p10-----------7--------
G|--0----------11\9--------6-----
D|----------------------7--------
G|--0----------------------------
D|-------------------------------

Stave 16:

D|--------------------0------------
A|--5-----4--------2-----4p2p0-----
G|--4-----2--------0------------0--
D|--------------0------------------
G|--0--------0---------------------
D|---------------------------------

Stave 17:

D|-------------------0--------0--------0--------0--------------
A|--5-----4--2--0h2-----4--------5--------4--------0-----------
G|--4-----2--0----------2--------4--------2-----------0-----0--
D|-------------------------0--------0--------0-----------0-----
G|--0--------0--0-------0--------0--------0--------------------
D|-------------------------------------------------------------

Stave 18:

D|-------0--------0--------0--------0--------
A|--0h2-----4--------5--------7--------0-----
G|----------2--------4--------6-----------0--
D|-------------0--------0--------0-----------
G|--0-------0--------0--------0--------------
D|-------------------------------------------

Stave 19:

D|--4h5p4--------0--4p2p0--------0---------------------------------------------0----------------
A|--5------7--5------------4--2-----4p2p0--------------------2--2h4p2p0--2--4-----7--------5h7--
G|---------------2-------------------------0-----------0--2-----------------------------0-------
D|--0------------4----------------------------4-----4--------------------------------0----------
G|----------------------------0------------------2-----------0----------------------------------
D|--------------------------------------------0-----------4-----------------------7-------------

Stave 20:

D|-----0----------------------12-------------
A|--------4-----0-----------------12---------
G|-----------4-----0------------------12--7--
D|--------------------2/4-----------------7--
G|-------------------------------------------
D|--0----------------------0-----------------

http://www.guitartabcreator.com
Guitar Tab Creator is intended to store guitar tab created through the tool. It currently does not support in-line text editing. Any text you place in here will be lost. If you need to comment on your tab, please use the "Tab Notes" section located below.