Sound will begin in 5 seconds

Work in Progress

Chords
01234567891011121314151617181920212223
E
B
G
D
A
E
B
0 1 2 3 4 5 6 7 8 9 10 11 12 13 14 15 16 17 18 19 20 21 22 23
Song Science #1: How Pros Use 6 Chords to Write Hit Songs
(/) Slide Up  (\) Slide Down  (h) Hammer On  (p) Pull Off  (b) Bend (r) Release (v) Vibrato

Stave 1:

E|-----3---3-x-0-0-x-0---------------3---3-x-0-0-x-5---5-5-5---
B|-----0---0-x-3-3-x-3h5p3-----------0---0-x-3-3-x-5---5-5-5---
G|-----5---5-x-0-0-x-0-----5-4-------5---5-x-0-0-x-0---0-0-0---
D|-----5---5-x-4-4-x-4---------5-----5---5-x-4-4-x-4---4-4-4---
A|-0---0---0-x-0-0-x-0-----------0---0---0-x-0-0-x-0---0-0-0---
E|-------------------------------------------------------------

Stave 2:

E|-----3---3-x-0-0-x-0---------------3---3-x-0-0-x-0-0-----------
B|-----0---0-x-3-3-x-3h5p3-----------0---0-x-3-3-x-3-3-----------
G|-----5---5-x-0-0-x-0-----5-4-------5---5-x-4-4-x-5-4-----------
D|-----5---5-x-4-4-x-4---------5-----5---5-x-4-4-x-4-4-----------
A|-0---0---0-x-0-0-x-0-----------0---0---0-x-0-0-x-0-0-2/3-------
E|---------------------------------------------------------------

Stave 3:

E|-----3---3-x-3---------7-7-x-0h5-5-------7-7-x-0h5-5-x-0h5-
B|-----0---0-x-0---------8-8-x-6---6-------8-8-x-6---6-x-6---
G|-----5---5-x-5---5-4-0-7-7-x-5---5-------7-7-x-5---5-x-5---
D|-----5---5-x-5---------0-0-x-0---0-----5-0-0-x-0---0-x-0---
A|-0---0---0-x-0---------------------0h5---------------------
E|-----------------------------------------------------------

Stave 4:

E|-7-7-----5-5-----3-3-----1-1-----0-----------0---------------0---
B|-8---8---6---6---5---5---3---3---1-1-----------1-1-1-----------1-
G|-7-----7-5-----5-4-----4-2-----2-2---2---0h2-----2---2---0h2-----
D|-0-------0-------0-------0-------2-----2---------2-----2---------
A|---------------------------------0---------------0---------------
E|-----------------------------------------------------------------

Stave 5:

E|-0-0-----------------3-----3-0-----0-------------0-----------------
B|-1---1---3-----1-------1-------3-1-1-1-----1-------1---1-0-1-0-----
G|-2-----2---2-----2-------2---------0---0-----0-------0---------2-0-
D|-3-----------3-----3---------------2-----2-----2-------------------
A|-0---------------------------------3-------------------------------
E|-------------------------------------------------------------------

Stave 6:

E|-3-------3-----3-----------2-2-----3-----2-----3-5-3-2-0----0-0----0-----
B|-3-3-------3-----3---------3---3-----3-----3---3-5-3-3-0----0--------0---
G|-0---0-------0-----0-----0-2-----2-----2-----2--------------1----------0-
D|-0-----0---------------0---0--------------------------------0------------
A|-2-------------------2--------------------------------------2------------
E|-3----------------------------------------------------------0------------

http://www.guitartabcreator.com
Guitar Tab Creator is intended to store guitar tab created through the tool. It currently does not support in-line text editing. Any text you place in here will be lost. If you need to comment on your tab, please use the "Tab Notes" section located below.