cbtw

Chords

01234567891011121314151617181920212223
E
B
G
D
A
E
B
0 1 2 3 4 5 6 7 8 9 10 11 12 13 14 15 16 17 18 19 20 21 22 23
(/) Slide Up  (\) Slide Down  (h) Hammer On  (p) Pull Off  (b) Bend (r) Release (v) Vibrato

Stave 1: bu da da bu da da bu da da

E|-------------------------------------------------------------------------------------------------------------------------------
B|-------------------------------------------------------------------------------------------------------------------------------
G|--0--------------0--0-----0--0-----0--0----------0--0-----0--0-----0--0-----0--0-----0--0-----0--0-----0--0-----0--0-----0--0--
D|--0--------------0--0-----0--0-----0--0----------0--0-----0--0-----0--0-----0--0-----0--0-----0--0-----0--0-----0--0-----0--0--
A|-----------------------------------------0h---3--------3--------3--------------------------------------------------------------
E|--3-----------3--------3--------3----------------------------------------0--------0--------0--------3--------3--------3--------

Stave 2:

E|-------------------------------------------------------------------------------------------------------------------------------------------------
B|-------------------------------------------------------------------------------------------------------------------------------------------------
G|-----0--0-----0--0-----0--0------------0--0-----0--0-----0--0----0--0-----0--0-----0--0-------0--0-----0--0-----0--0-----0--0-----0--0-----0--0--
D|-----0--0-----0--0-----0--0------------0--0-----0--0-----0--0----0--0-----0--0-----0--0-------0--0-----0--0-----0--0-----0--0-----0--0-----0--0--
A|-----------------------------0-----h3--------3--------3------/7--------7--------7--------2/3--------3--------3-----------------------------------
E|--3--------3--------3-------------------------------------------------------------------------------------------------3--------3--------3--------

							http://www.guitartabcreator.com
Instruments
{"strings":[[[".","_","_","_",".",".",".",".",".",".",".",".",".",".",".","_",".",".",".",".",".",".",".",".",".",".",".",".",".",".",".",".",".",".",".",".",".",".",".",".",".",".","."],[".","_","_","_",".",".",".",".",".",".",".",".",".",".",".","_",".",".",".",".",".",".",".",".",".",".",".",".",".",".",".",".",".",".",".",".",".",".",".",".",".",".","."],[0,"_","_","_",".",0,0,".",0,0,".",0,0,".",".","_",".",0,0,".",0,0,".",0,0,".",0,0,".",0,0,".",0,0,".",0,0,".",0,0,".",0,0],[0,"_","_","_",".",0,0,".",0,0,".",0,0,".",".","_",".",0,0,".",0,0,".",0,0,".",0,0,".",0,0,".",0,0,".",0,0,".",0,0,".",0,0],[".","_","_","_",".",".",".",".",".",".",".",".",".",0,"h","_",3,".",".",3,".",".",3,".",".",".",".",".",".",".",".",".",".",".",".",".",".",".",".",".",".",".","."],[3,"_","_","_",3,".",".",3,".",".",3,".",".",".",".","_",".",".",".",".",".",".",".",".",".",0,".",".",0,".",".",0,".",".",3,".",".",3,".",".",3,".","."]],[[".",".",".",".",".",".",".",".",".",".","_",".",".",".",".",".",".",".",".",".",".",".",".",".",".",".",".",".",".",".",".",".",".",".",".",".",".",".",".",".",".",".",".",".",".",".",".",".",".",".","."],[".",".",".",".",".",".",".",".",".",".","_",".",".",".",".",".",".",".",".",".",".",".",".",".",".",".",".",".",".",".",".",".",".",".",".",".",".",".",".",".",".",".",".",".",".",".",".",".",".",".","."],[".",0,0,".",0,0,".",0,0,".","_",".",".",0,0,".",0,0,".",0,0,".",".",0,0,".",0,0,".",0,0,".",".",".",0,0,".",0,0,".",0,0,".",0,0,".",0,0,".",0,0],[".",0,0,".",0,0,".",0,0,".","_",".",".",0,0,".",0,0,".",0,0,".",".",0,0,".",0,0,".",0,0,".",".",".",0,0,".",0,0,".",0,0,".",0,0,".",0,0,".",0,0],[".",".",".",".",".",".",".",".",".",0,"_","h",3,".",".",3,".",".",3,".",".","/",7,".",".",7,".",".",7,".",".",2,"/",3,".",".",3,".",".",3,".",".",".",".",".",".",".",".",".",".","."],[3,".",".",3,".",".",3,".",".",".","_",".",".",".",".",".",".",".",".",".",".",".",".",".",".",".",".",".",".",".",".",".",".",".",".",".",".",".",".",".",".",".",3,".",".",3,".",".",3,".","."]]],"numberofstrings":6,"notes":["E","B","G","D","A","E","B"],"capo":0,"stringnotes":["E4","B3","G3","D3","A2","E2"],"comments":["Stave 1: bu da da bu da da bu da da","Stave 2:"],"timing":[["W",null,null,null,"W","W","W","W","W","W","W","W","W","W",null,"W","W","W","W","W","W","W","W","W","W","W","W","W","W","W","W","W","W","W","W","W","W","W","W","W","W","W","W"],["W","W","W","W","W","W","W","W","W","W","W",null,"W","W","W","W","W","W","W","W","W","W","W","W","W","W","W","W","W","W","W","W","W","W","W","W","W","W","W","W","W","W","W","W","W","W","W","W","W","W","W"]],"timingvisible":false,"tabcounter":50,"stave":1,"totalstaves":2,"instrument":"6guitar","selectedtuning":"6_standard","version":"13"}

Member for

1 month 1 week
Submitted by Schmiegma on Tue, 2020-10-20 20:06