Play That Funky Music White Boy

Chords

01234567891011121314151617181920212223
E
B
G
D
A
E
B
0 1 2 3 4 5 6 7 8 9 10 11 12 13 14 15 16 17 18 19 20 21 22 23
(/) Slide Up  (\) Slide Down  (h) Hammer On  (p) Pull Off  (b) Bend (r) Release (v) Vibrato

Stave 1:

E|--7--6--7--9--8--7--6--7--
B|--7--6--7--9--8--7--6--7--
G|--7--6--7--9--8--7--6--7--
D|--6--5--6--8--7--6--5--6--
A|--------------------------
E|--------------------------

Stave 2:

E|--10--10--10--10--9--8--
B|--10--10--10--10--9--8--
G|--10--10--10--10--9--8--
D|--9---9---9---9---8--7--
A|------------------------
E|------------------------

							http://www.guitartabcreator.com
Instruments
{"strings":[[[7,6,7,9,8,7,6,7],[7,6,7,9,8,7,6,7],[7,6,7,9,8,7,6,7],[6,5,6,8,7,6,5,6],[".",".",".",".",".",".",".","."],[".",".",".",".",".",".",".","."]],[[10,10,10,10,9,8],[10,10,10,10,9,8],[10,10,10,10,9,8],[9,9,9,9,8,7],[".",".",".",".",".","."],[".",".",".",".",".","."]]],"numberofstrings":6,"notes":["E","B","G","D","A","E","B"],"capo":0,"stringnotes":["E4","B3","G3","D3","A2","E2"],"comments":["Stave 1:","Stave 2:"],"timing":[["W","W","W","W","W","W","W","W"],["W","W","W","W","W","W"]],"timingvisible":false,"tabcounter":5,"stave":1,"totalstaves":2,"instrument":"6guitar","selectedtuning":"6_standard","version":"13"}

Member for

1 month
Submitted by schilcur2112 on Tue, 2020-06-30 09:20