Brick House Riffs

Chords

01234567891011121314151617181920212223
E
B
G
D
A
E
B
0 1 2 3 4 5 6 7 8 9 10 11 12 13 14 15 16 17 18 19 20 21 22 23
(/) Slide Up  (\) Slide Down  (h) Hammer On  (p) Pull Off  (b) Bend (r) Release (v) Vibrato

Stave 1:

E|--7-7--5--
B|--9-7--5--
G|--8-7--5--
D|----------
A|----------
E|----------

Stave 2:

E|--5-----5--
B|--7-----5--
G|--5-----5--
D|--5-----5--
A|-----------
E|-----------

Stave 3:

E|--10--10--10--x--x--
B|--10--10--10--x--x--
G|--12--12--12--x--x--
D|--12--12--12--x--x--
A|--------------------
E|--------------------

							http://www.guitartabcreator.com
Instruments
{"strings":[[[7,"\\",7,5],[9,"\\",7,5],[8,"\\",7,5],[".",".",".","."],[".",".",".","."],[".",".",".","."]],[[5,".",5],[7,".",5],[5,".",5],[5,".",5],[".",".","."],[".",".","."]],[[10,10,10,"x13","x13"],[10,10,10,"x13","x13"],[12,12,12,"x13","x13"],[12,12,12,"x13","x13"],[".",".",".",".","."],[".",".",".",".","."]]],"numberofstrings":6,"notes":["E","B","G","D","A","E","B"],"capo":0,"stringnotes":["E4","B3","G3","D3","A2","E2"],"comments":["Stave 1:","Stave 2:","Stave 3:"],"timing":[[null,null,null],[null,null],["W","W","W","W","W"]],"timingvisible":false,"tabcounter":4,"stave":2,"totalstaves":3,"instrument":"6guitar","selectedtuning":"6_standard","version":"13"}

Member for

3 weeks 6 days
Submitted by schilcur2112 on Tue, 2020-06-30 08:54