Sound will begin in 5 seconds

Gerudo Valley

Chords
01234567891011121314151617181920212223
E
B
G
D
A
E
B
0 1 2 3 4 5 6 7 8 9 10 11 12 13 14 15 16 17 18 19 20 21 22 23
Song Science #1: How Pros Use 6 Chords to Write Hit Songs
(/) Slide Up  (\) Slide Down  (h) Hammer On  (p) Pull Off  (b) Bend (r) Release (v) Vibrato

Stave 1:

E|--2--2--0--4--
B|--2--3--0--6--
G|--2--2--1--4--
D|--4--0--2--6--
A|--4-----2--4--
E|--2-----0-----

Stave 2:

E|----------------------------------7--9--
B|-----------------7--10---------9--------
G|--------4--7---------------10-----------
D|-----6----------------------------------
A|--4-------------------------------------
E|----------------------------------------

Stave 3:

E|-----2--4--5-----2--4--5--------2--4--5-----2--4--5--------0--2--4-----0--2--4--2--2h4p2--1--
B|--2-----------2--------------3-----------3--------------0-----------0------------------------
G|---------------------------------------------------------------------------------------------
D|---------------------------------------------------------------------------------------------
A|---------------------------------------------------------------------------------------------
E|---------------------------------------------------------------------------------------------

Stave 4:

E|-----2--4--5-----2--4--5--------2--4--5-----2--4--5--------0--2--4-----0--2--4-----5h7p5--4--
B|--2-----------2--------------3-----------3--------------0-----------0------------------------
G|---------------------------------------------------------------------------------------------
D|---------------------------------------------------------------------------------------------
A|---------------------------------------------------------------------------------------------
E|---------------------------------------------------------------------------------------------

Stave 5:

E|-----5--4--2--------------------------4--2---------------------
B|--2-----------2--5h7p5--3-------------------5--3--2--3h5p3--2--
G|------------------------------2\4--4---------------------------
D|---------------------------------------------------------------
A|---------------------------------------------------------------
E|---------------------------------------------------------------

Stave 6:

E|-----5--4--2------------------------------------
B|--2-----------2--5h7p5--3-----3--5--7--5--3--2--
G|------------------------------2--4--4--4--1--1--
D|------------------------------------------------
A|------------------------------------------------
E|------------------------------------------------

http://www.guitartabcreator.com
Guitar Tab Creator is intended to store guitar tab created through the tool. It currently does not support in-line text editing. Any text you place in here will be lost. If you need to comment on your tab, please use the "Tab Notes" section located below.