Schlaflied für Anne

Chords

01234567891011121314151617181920212223
E
B
G
D
A
E
B
0 1 2 3 4 5 6 7 8 9 10 11 12 13 14 15 16 17 18 19 20 21 22 23
(/) Slide Up  (\) Slide Down  (h) Hammer On  (p) Pull Off  (b) Bend (r) Release (v) Vibrato

Stave 1:

E|-------------------------------------------------|-------------------------------------------------|-------------------------------------------------|---
B|-------------------------------------------------|-------------------------------------------------|-------------------------------------------------|---
G|-------------------------------------------------|-------------------------------------------------|-------------------------------------------------|---
D|-------------------------------------------------|-------------------------------------------------|---7-------7-------------------------------------|---
A|-------7-------5-----------------5---------------|-------7-------5------5---5------5---7---8---7---|-------7-------8------7---5--------------5---7---|---
E|---5-------8----------8---7----------7---8---5---|---5-------8-------------------------------------|---------------------------------7---8-----------|---

Stave 2:

E|-------------------------------------------------|---
B|-------------------------------------------------|---
G|-------------------------------------------------|---
D|-------------------------------------------------|---
A|---7---8---7---5-----------------5---------------|---
E|----------------------8---7----------7---8---5---|---

							http://www.guitartabcreator.com
Instruments
{"strings":[[[".",".",".",".","_",".",".","_",".",".",".",".","|",".",".",".",".","_",".",".","_",".",".",".",".","|",".",".",".",".","_",".",".","_",".",".",".",".","|"],[".",".",".",".","_",".",".","_",".",".",".",".","|",".",".",".",".","_",".",".","_",".",".",".",".","|",".",".",".",".","_",".",".","_",".",".",".",".","|"],[".",".",".",".","_",".",".","_",".",".",".",".","|",".",".",".",".","_",".",".","_",".",".",".",".","|",".",".",".",".","_",".",".","_",".",".",".",".","|"],[".",".",".",".","_",".",".","_",".",".",".",".","|",".",".",".",".","_",".",".","_",".",".",".",".","|",7,".",7,".","_",".",".","_",".",".",".",".","|"],[".",7,".",5,"_",".",".","_",5,".",".",".","|",".",7,".",5,"_",5,5,"_",5,7,8,7,"|",".",7,".",8,"_",7,5,"_",".",".",5,7,"|"],[5,".",8,".","_",8,7,"_",".",7,8,5,"|",5,".",8,".","_",".",".","_",".",".",".",".","|",".",".",".",".","_",".",".","_",7,8,".",".","|"]],[[".",".",".",".","_",".",".","_",".",".",".",".","|"],[".",".",".",".","_",".",".","_",".",".",".",".","|"],[".",".",".",".","_",".",".","_",".",".",".",".","|"],[".",".",".",".","_",".",".","_",".",".",".",".","|"],[7,8,7,5,"_",".",".","_",5,".",".",".","|"],[".",".",".",".","_",8,7,"_",".",7,8,5,"|"]]],"numberofstrings":6,"notes":["E","B","G","D","A","E","B"],"capo":0,"stringnotes":["E4","B3","G3","D3","A2","E2"],"comments":["Stave 1:","Stave 2:"],"timing":[["W","W","W","W",null,"W","W",null,"W","W","W","W",null,"W","W","W","W",null,"W","W",null,"W","W","W","W",null,"W","W","W","W",null,"W","W",null,"W","W","W","W",null,"W","W","W","W"],["W","W","W","W",null,"W","W",null,"W","W","W","W"]],"timingvisible":false,"tabcounter":13,"stave":1,"totalstaves":2,"instrument":"6guitar","selectedtuning":"6_standard","version":"13"}

Member for

2 weeks
Submitted by Scharknatow on Thu, 2020-11-19 03:07