Sound will begin in 5 seconds

Collapse - Lead

Chords
01234567891011121314151617181920212223
E
B
G
D
A
E
B
0 1 2 3 4 5 6 7 8 9 10 11 12 13 14 15 16 17 18 19 20 21 22 23
Song Science #1: How Pros Use 6 Chords to Write Hit Songs
(/) Slide Up  (\) Slide Down  (h) Hammer On  (p) Pull Off  (b) Bend (r) Release (v) Vibrato

(W|WW) Whole (H|HH) Half (Q|QQ) Quarter (E|EE) 8th (S|SS) 16th (T|TT) 32nd (X|XX) 64th

Stave 1:
t: QQ QQ QQ QQ HH HH HH HH
Eb|----------------------------------
Bb|----------------------------------
Gb|----------------------------------
Db|----------------------------------
Ab|----------------------------------
Eb|--15--15--15--15--17--17--18--18--

Stave 2:
t: Q Q Q Q H H H H
Eb|--------------------------
Bb|--------------------------
Gb|--5--5--5--5--7--7--8--8--
Db|--5--5--5--5--7--7--8--8--
Ab|--3--3--3--3--5--5--6--6--
Eb|--------------------------

Stave 3:
t: H H
Eb|--------
Bb|--------
Gb|--2-----
Db|--2--2--
Ab|--0--2--
Eb|-----0--

Stave 4:
t: W W W W W W
Eb|-----------------------
Bb|--------1--------------
Gb|-----2--------------1--
Db|--2--------------2-----
Ab|--------------2--------
Eb|-----------------------

Stave 5:
t: H H H H H H H H
Eb|--------------0--0--0--0--
Bb|--1--1--1--1--0--0--0--0--
Gb|--2--2--2--2--1--1--1--1--
Db|--2--2--2--2--2--2--2--2--
Ab|--0--0--0--0--2--2--2--2--
Eb|--------------0--0--0--0--

Stave 6:
t: H W
Eb|--3--------
Bb|--3--------
Gb|--0--------
Db|--0--------
Ab|--2--------
Eb|--3-----8--

Stave 7:
t: E E E E E E E E E E E E E E E E QQ QQ QQ QQ QQ QQ QQ QQ H H H H H H H
Eb|-------------------------------------------------------------------------------------------------------
Bb|-------------------------------------------------------------------------------------------------------
Gb|----------------------------------------------------------------------------------8--8--8--8--8--8--8--
Db|--7--7--7--7--7--7--7--7--9--9--9--9--9--9--9--9--10--10--10--10--10--10--10--10--8--8--8--8--8--8--8--
Ab|--7--7--7--7--7--7--7--7--9--9--9--9--9--9--9--9--10--10--10--10--10--10--10--10--6--6--6--6--6--6--6--
Eb|--5--5--5--5--5--5--5--5--7--7--7--7--7--7--7--7--8---8---8---8---8---8---8---8------------------------

Stave 8:
t:
Eb|--
Bb|--
Gb|--
Db|--
Ab|--
Eb|--

http://www.guitartabcreator.com
Guitar Tab Creator is intended to store guitar tab created through the tool. It currently does not support in-line text editing. Any text you place in here will be lost. If you need to comment on your tab, please use the "Tab Notes" section located below.