Sound will begin in 5 seconds

5/2/16 A Minor Pentatonic

Chords
01234567891011121314151617181920212223
E
B
G
D
A
E
B
0 1 2 3 4 5 6 7 8 9 10 11 12 13 14 15 16 17 18 19 20 21 22 23
Song Science #1: How Pros Use 6 Chords to Write Hit Songs
(/) Slide Up  (\) Slide Down  (h) Hammer On  (p) Pull Off  (b) Bend (r) Release (v) Vibrato

Stave 1:

E|--5/3--------------------------------------8--10--8------5--8--5-----5--
B|----------------------------------10/8\10------------10-----------8-----
G|-------2----------------------------------------------------------------
D|----------2--5-----7--5-----5--7----------------------------------------
A|-------------------------7----------------------------------------------
E|----------------5-------------------------------------------------------

Stave 2:

E|----------------------12---------------17/20\17--15--------------15--17--
B|------13--15--13-------------------------------------17--15--17----------
G|--14--------------14------14--7--5---------------------------------------
D|------------------------------7--5--7------------------------------------
A|-------------------------------------------------------------------------
E|-------------------------------------------------------------------------

Stave 3:

E|--5--5--5--5--------------------
B|--------------5-----------------
G|--------------------------5-----
D|-----------------7--5--7-----7--
A|--------------------------------
E|--------------------------------

Stave 4:

E|--5--3-----3-------5-----------8------
B|--------5-----5/8-----5--8/10-----10--
G|--------------------------------------
D|--------------------------------------
A|--------------------------------------
E|--------------------------------------

http://www.guitartabcreator.com
Guitar Tab Creator is intended to store guitar tab created through the tool. It currently does not support in-line text editing. Any text you place in here will be lost. If you need to comment on your tab, please use the "Tab Notes" section located below.