Sound will begin in 5 seconds

4/11/2016

01234567891011121314151617181920212223
E
B
G
D
A
E
B
0 1 2 3 4 5 6 7 8 9 10 11 12 13 14 15 16 17 18 19 20 21 22 23
Song Science #1: How Pros Use 6 Chords to Write Hit Songs
(/) Slide Up  (\) Slide Down  (h) Hammer On  (p) Pull Off  (b) Bend (r) Release (v) Vibrato

Stave 1:

E|-------------------3-----3--6--3--------17--20--17------17---------------
B|----------------------3-----------------------------20------20--17--20v--
G|-----5h7--5--------------------------------------------------------------
D|--7----------------------------------------------------------------------
A|-------------------------------------------------------------------------
E|-------------------------------------------------------------------------

Stave 2:

E|-----------------------------------------------------------8-------
B|-------------------------------------------------------10-----10v--
G|-------------------------------------------------7--9--------------
D|--------------------------7v--------7h10--7v-----------------------
A|--------------------5--5-------------------------------------------
E|--5--5--5--5--8--8-------------------------------------------------

Stave 3:

E|-------------------------------------------12--15-------------------------------------17v--
B|---------------------------------------------------13-----------------15--17--15-----------
G|---------------------------------------14--------------14--12--14\17--------------17-------
D|------------------------10-----------------------------------------------------------------
A|-------5--3-----------------12v------------------------------------------------------------
E|--5p3--------5/8/10/12---------------------------------------------------------------------

http://www.guitartabcreator.com
Guitar Tab Creator is intended to store guitar tab created through the tool. It currently does not support in-line text editing. Any text you place in here will be lost. If you need to comment on your tab, please use the "Tab Notes" section located below.