Sound will begin in 5 seconds

Let me hear

Chords
01234567891011121314151617181920212223
E
B
G
D
A
E
B
0 1 2 3 4 5 6 7 8 9 10 11 12 13 14 15 16 17 18 19 20 21 22 23
Song Science #1: How Pros Use 6 Chords to Write Hit Songs
(/) Slide Up  (\) Slide Down  (h) Hammer On  (p) Pull Off  (b) Bend (r) Release (v) Vibrato

Stave 1:

E|-------------------------------------------------------------
B|----12-14----12-14-12----------------------------14-12-17-15-
G|-14-------14-------------14-13-14-13----11-14-13-------------
D|-------------------------------------14----------------------
A|-------------------------------------------------------------
E|-------------------------------------------------------------

Stave 2:

E|-19-17-16-14----------------------------------17-16-14-16-17-19/22b23-
B|-------------15-17----12-14-12-14-15-14-15-17-------------------------
G|-------------------14-------------------------------------------------
D|----------------------------------------------------------------------
A|----------------------------------------------------------------------
E|----------------------------------------------------------------------

Stave 3:

E|----------17-21-22-21-17----------17-19-21-19-17----------17-21-17-21-
B|-19-17-19----------------19-17-19----------------19-17-19-------------
G|----------------------------------------------------------------------
D|----------------------------------------------------------------------
A|----------------------------------------------------------------------
E|----------------------------------------------------------------------

Stave 4:

E|-22-23-22-21-22-21-22-21----
B|-------------------------22-
G|----------------------------
D|----------------------------
A|----------------------------
E|----------------------------

Stave 5:

E|----17----16----------------------------------------17----16-------------------
B|-17----15----15-17-19-17-15-17-------------------17----15----15-17-19-17-14-17-
G|-------------------------------16-18-------------------------------------------
D|-------------------------------------17-18----17-------------------------------
A|-------------------------------------------18----------------------------------
E|-------------------------------------------------------------------------------

Stave 6:

E|----17----16-------------------------------------------------------------------------------------
B|-17----15----15-17-19-17-15-17-------------------------14-14----------------14-15-17-15-12-14----
G|-------------------------------16-18-------------16-14-------16----------16-------------------14-
D|-------------------------------------17-18-17-------------------14----14-------------------------
A|----------------------------------------------18-------------------17----------------------------
E|-------------------------------------------------------------------------------------------------

Stave 7:

E|-------------------------------------------------------------------------------------------------------
B|----15----15-17-15-17-15----15----15-17-19-17-15----15----15-17-15-17-15----15----15-------------------
G|-16----16----------------16----16----------------16----16----------------16----16----13-14-16-16-18-21-
D|-------------------------------------------------------------------------------------------------------
A|----------------------------------------------------------------------------------------------14-16-19-
E|-------------------------------------------------------------------------------------------------------

Stave 8:

E|----21----21----21----21----22-21-19----21----21----21-------------22-21-19----22-------19-19-23-22-19-
B|-19-22-19-22-19-22-19-22-19----------22----19-22-19-22-19-19-21-22----------21----21-22----------------
G|-------------------------------------------------------------------------------------------------------
D|-------------------------------------------------------------------------------------------------------
A|-------------------------------------------------------------------------------------------------------
E|-------------------------------------------------------------------------------------------------------

Stave 9:

E|-23-22----23-23-22-21-23-------------------------23-22-21-19-21-------------------
B|-------22----------------19-19-19-21-21-21-22-22----------------19-22-19----------
G|-------------------------------------------------------------------------18-------
D|----------------------------------------------------------------------------20-21-
A|----------------------------------------------------------------------------------
E|----------------------------------------------------------------------------------

http://www.guitartabcreator.com
Guitar Tab Creator is intended to store guitar tab created through the tool. It currently does not support in-line text editing. Any text you place in here will be lost. If you need to comment on your tab, please use the "Tab Notes" section located below.