Lifeless Husk

Chords

01234567891011121314151617181920212223
E
B
G
D
A
E
B
0 1 2 3 4 5 6 7 8 9 10 11 12 13 14 15 16 17 18 19 20 21 22 23
(/) Slide Up  (\) Slide Down  (h) Hammer On  (p) Pull Off  (b) Bend (r) Release (v) Vibrato

Intro(2x):

E|--------------------------------------------------------------------------------------
B|--------------------------------------------------------------------------------------
G|--------------------------------------------------------------------------------------
D|--------------------------------------------------------------------------------------
A|-----------------------5--8--7--------------------5--8--7--8--7--5--7--5--4-----------
E|--------5--8--7-----------------------5--8--7--------------8--7--5--7--5--4-----------
A|--0--0-----------0--0-----------0--0-----------0--0--------8--7--5--7--5--4-----------

Chorus (2x)

E|---------------------------------------------------------------------------------
B|---------------------------------------------------------------------------------
G|---------------------------------------------------------------------------------
D|------------------------------7--10--9------------------------------10--7--7--9--
A|--0--0--0--7--10--9--0--0--0--5--8---7--0--0--0--7--10--9--0--0--0--8---5--5--7--
E|--0--0--0--5--8---7--0--0--0------------0--0--0--5--8---7--0--0--0---------------
A|--0--0--0------------0--0--0------------0--0--0------------0--0--0---------------

Djent

E|--------------------------------------------------------------------------------------------------
B|--------------------------------------------------------------------------------------------------
G|--------------------------------------------------------------------------------------------------
D|--------------------------------------------------------------------------------------------------
A|--------------------------------------------------------------------------------------------------
E|--------------------------------------------------------------------------------------------------
A|--0--0-----0--0-----0--0-----0--0-----0--0--0--0--0--0-----0--0-----0--0-----0--0-----0--0--0--0--

DJent ausklingen

E|--------------------------------------------------------------------------------
B|--------------------------------------------------------------------------------
G|--------------------------------------------------------------------------------
D|--------------------------------------------------------------------------------
A|-----------------------------0--------------------------------------------------
E|-----------------------------0--------0--0-----0--0-----0--0-----0--0-----0-----
A|--0--0-----0--0-----0--0-----0--------0--0-----0--0-----0--0-----0--0-----0-----

Melodie:

E|--------------------------------------------------------------------------------------------------------------------------------------------------------------------------
B|--------------------------------------------------------------------------------------------------------------------------------------------------------------------------
G|--------------------------------------------------------------------------------------------------------------------------------------------------------------------------
D|--------------------------------------------------------------------------------------------------------------------------------------------------------------------------
A|--------------------------------------7--7--7--7--------------------------------------------------------------------------7--7--7--7--8--8--8--8--7--7--7--7--------------
E|--8--8--8--8--7--7--7--7--5--5--5--5--------------8--8--8--8--7--7--7--7--5--5--5--5--8--8--8--8--7--7--7--7--5--5--5--5--------------------------------------8--8--8--8--
A|--------------------------------------------------------------------------------------------------------------------------------------------------------------------------

Zwischenpart

E|--------------------------------------------------------------------------------------------
B|--------------------------------------------------------------------------------------------
G|--------------------------------------------------------------------------------------------
D|--------------------------------------------------------------------------------------------
A|--5--5--5--------------5--5--5--------------5--5--5--------------5--5--5--------------------
E|--4--4--4--------------4--4--4--------------4--4--4--------------4--4--4--------------------
A|--5--5--5--------------5--5--5--------------5--5--5--------------5--5--5--------------------

Zwischenpart continued:

E|--------------------------------------------------------------------------------------
B|--------------------------------------------------------------------------------------
G|--------------------------------------------------------------------------------------
D|--------------------------------------------------------------------------------------
A|--5--5--5-----5--5-----5--5--5-----5--5-----5--5--5-----5--5-----5--5--5-----5--5-----
E|--4--4--4-----4--4-----4--4--4-----4--4-----4--4--4-----4--4-----4--4--4-----4--4-----
A|--5--5--5-----5--5-----5--5--5-----5--5-----5--5--5-----5--5-----5--5--5-----5--5-----

Zwischenpart schnell

E|-----------------
B|-----------------
G|-----------------
D|-----------------
A|--5--5--5--5--5--
E|--4--4--4--4--4--
A|--5--5--5--5--5--

							http://www.guitartabcreator.com
Instruments
{"strings":[[[".",".",".",".",".",".",".",".",".",".",".",".",".",".",".",".",".",".",".",".",".",".",".",".",".",".",".","."],[".",".",".",".",".",".",".",".",".",".",".",".",".",".",".",".",".",".",".",".",".",".",".",".",".",".",".","."],[".",".",".",".",".",".",".",".",".",".",".",".",".",".",".",".",".",".",".",".",".",".",".",".",".",".",".","."],[".",".",".",".",".",".",".",".",".",".",".",".",".",".",".",".",".",".",".",".",".",".",".",".",".",".",".","."],[".",".",".",".",".",".",".",5,8,7,".",".",".",".",".",".",5,8,7,8,7,5,7,5,4,".",".","."],[".",".",5,8,7,".",".",".",".",".",".",".",5,8,7,".",".",".",".",8,7,5,7,5,4,".",".","."],[0,0,".",".",".",0,0,".",".",".",0,0,".",".",".",0,0,".",".",8,7,5,7,5,4,".",".","."]],[[".",".",".",".",".",".",".",".",".",".",".",".",".",".",".",".",".",".",".",".",".",".",".",".","."],[".",".",".",".",".",".",".",".",".",".",".",".",".",".",".",".",".",".",".",".",".",".",".",".","."],[".",".",".",".",".",".",".",".",".",".",".",".",".",".",".",".",".",".",".",".",".",".",".",".","."],[".",".",".",".",".",".",".",".",".",7,10,9,".",".",".",".",".",".",".",".",".",10,7,7,9],[0,0,0,7,10,9,0,0,0,5,8,7,0,0,0,7,10,9,0,0,0,8,5,5,7],[0,0,0,5,8,7,0,0,0,".",".",".",0,0,0,5,8,7,0,0,0,".",".",".","."],[0,0,0,".",".",".",0,0,0,".",".",".",0,0,0,".",".",".",0,0,0,".",".",".","."]],[[".",".",".",".",".",".",".",".",".",".",".",".",".",".",".",".",".",".",".",".",".",".",".",".",".",".",".",".",".",".",".","."],[".",".",".",".",".",".",".",".",".",".",".",".",".",".",".",".",".",".",".",".",".",".",".",".",".",".",".",".",".",".",".","."],[".",".",".",".",".",".",".",".",".",".",".",".",".",".",".",".",".",".",".",".",".",".",".",".",".",".",".",".",".",".",".","."],[".",".",".",".",".",".",".",".",".",".",".",".",".",".",".",".",".",".",".",".",".",".",".",".",".",".",".",".",".",".",".","."],[".",".",".",".",".",".",".",".",".",".",".",".",".",".",".",".",".",".",".",".",".",".",".",".",".",".",".",".",".",".",".","."],[".",".",".",".",".",".",".",".",".",".",".",".",".",".",".",".",".",".",".",".",".",".",".",".",".",".",".",".",".",".",".","."],[0,0,".",0,0,".",0,0,".",0,0,".",0,0,0,0,0,0,".",0,0,".",0,0,".",0,0,".",0,0,0,0]],[[".",".",".",".",".",".",".",".",".",".",".",".",".",".",".",".",".",".",".",".",".",".",".",".",".","."],[".",".",".",".",".",".",".",".",".",".",".",".",".",".",".",".",".",".",".",".",".",".",".",".",".","."],[".",".",".",".",".",".",".",".",".",".",".",".",".",".",".",".",".",".",".",".",".",".",".",".",".","."],[".",".",".",".",".",".",".",".",".",".",".",".",".",".",".",".",".",".",".",".",".",".",".",".",".","."],[".",".",".",".",".",".",".",".",".",0,".",".",".",".",".",".",".",".",".",".",".",".",".",".",".","."],[".",".",".",".",".",".",".",".",".",0,".",".",0,0,".",0,0,".",0,0,".",0,0,".",0,"."],[0,0,".",0,0,".",0,0,".",0,".",".",0,0,".",0,0,".",0,0,".",0,0,".",0,"."]],[[".",".",".",".",".",".",".",".",".",".",".",".",".",".",".",".",".",".",".",".",".",".",".",".",".",".",".",".",".",".",".",".",".",".",".",".",".",".",".",".",".",".",".",".",".",".",".",".",".",".",".",".",".",".",".","."],[".",".",".",".",".",".",".",".",".",".",".",".",".",".",".",".",".",".",".",".",".",".",".",".",".",".",".",".",".",".",".",".",".",".",".",".",".",".",".",".",".",".",".",".",".",".",".",".",".",".",".",".",".",".",".","."],[".",".",".",".",".",".",".",".",".",".",".",".",".",".",".",".",".",".",".",".",".",".",".",".",".",".",".",".",".",".",".",".",".",".",".",".",".",".",".",".",".",".",".",".",".",".",".",".",".",".",".",".",".",".",".","."],[".",".",".",".",".",".",".",".",".",".",".",".",".",".",".",".",".",".",".",".",".",".",".",".",".",".",".",".",".",".",".",".",".",".",".",".",".",".",".",".",".",".",".",".",".",".",".",".",".",".",".",".",".",".",".","."],[".",".",".",".",".",".",".",".",".",".",".",".",7,7,7,7,".",".",".",".",".",".",".",".",".",".",".",".",".",".",".",".",".",".",".",".",".",".",".",".",7,7,7,7,8,8,8,8,7,7,7,7,".",".",".","."],[8,8,8,8,7,7,7,7,5,5,5,5,".",".",".",".",8,8,8,8,7,7,7,7,5,5,5,5,8,8,8,8,7,7,7,7,5,5,5,5,".",".",".",".",".",".",".",".",".",".",".",".",8,8,8,8],[".",".",".",".",".",".",".",".",".",".",".",".",".",".",".",".",".",".",".",".",".",".",".",".",".",".",".",".",".",".",".",".",".",".",".",".",".",".",".",".",".",".",".",".",".",".",".",".",".",".",".",".",".",".",".","."]],[[".",".",".",".",".",".",".",".",".",".",".",".",".",".",".",".",".",".",".",".",".",".",".",".",".",".",".",".",".","."],[".",".",".",".",".",".",".",".",".",".",".",".",".",".",".",".",".",".",".",".",".",".",".",".",".",".",".",".",".","."],[".",".",".",".",".",".",".",".",".",".",".",".",".",".",".",".",".",".",".",".",".",".",".",".",".",".",".",".",".","."],[".",".",".",".",".",".",".",".",".",".",".",".",".",".",".",".",".",".",".",".",".",".",".",".",".",".",".",".",".","."],[5,5,5,".",".",".",".",5,5,5,".",".",".",".",5,5,5,".",".",".",".",5,5,5,".",".",".",".",".","."],[4,4,4,".",".",".",".",4,4,4,".",".",".",".",4,4,4,".",".",".",".",4,4,4,".",".",".",".",".","."],[5,5,5,".",".",".",".",5,5,5,".",".",".",".",5,5,5,".",".",".",".",5,5,5,".",".",".",".",".","."]],[[".",".",".",".",".",".",".",".",".",".",".",".",".",".",".",".",".",".",".",".",".",".",".",".",".",".","_","."],[".",".",".",".",".",".",".",".",".",".",".",".",".",".",".",".",".",".",".",".",".",".",".",".",".",".","_","."],[".",".",".",".",".",".",".",".",".",".",".",".",".",".",".",".",".",".",".",".",".",".",".",".",".",".","_","."],[".",".",".",".",".",".",".",".",".",".",".",".",".",".",".",".",".",".",".",".",".",".",".",".",".",".","_","."],[5,5,5,".",5,5,".",5,5,5,".",5,5,".",5,5,5,".",5,5,".",5,5,5,".",5,5,"."],[4,4,4,".",4,4,".",4,4,4,".",4,4,".",4,4,4,".",4,4,".",4,4,4,".",4,4,"."],[5,5,5,".",5,5,".",5,5,5,".",5,5,".",5,5,5,".",5,5,".",5,5,5,".",5,5,"."]],[[".",".",".",".","."],[".",".",".",".","."],[".",".",".",".","."],[".",".",".",".","."],[5,5,5,5,5],[4,4,4,4,4],[5,5,5,5,5]]],"numberofstrings":7,"notes":["E","B","G","D","A","E","A"],"capo":0,"stringnotes":["E3","B2","G2","D2","A1","E1","A0"],"comments":["Intro(2x):","Chorus (2x)","Djent","DJent ausklingen","Melodie:","Zwischenpart","Zwischenpart continued:","Zwischenpart schnell"],"timing":[[null,"W","W","W","W","W","W","W","W","W","W","W","W","W","W","W","W","W","W","W","W","W","W","W","W","W","W","W"],["S","W","W","W","W","W","W","W","W","W","W","W","W","W","W","W","W","W","W","W","W","W","W","W","W","W"],["S","W","W","S","W","W","S","W","W","S","W","W","S","W","W","W","W","S","W","W","W","W","S","W","W","S","W","W","S","W","W","W","W"],["S","W","S","W","W","W","S","W","W","S","W","S","S","W","W","S","W","W","S","W","W","S","W","W","S","W"],["S","W","W","W","W","W","W","W","W","W","W","W","W","W","W","W","W","W","W","W","W","W","W","W","W","W","W","W","W","W","W","W","W","W","W","W","W","W","W","W","W","W","W","W","W","W","W","W","W","W","W","W","W","W","W","W","W"],[null,"W","W","W",null,null,null,null,"W","W","W",null,null,null,null,"W","W","W",null,null,null,null,"W","W","W"],[null,"W","W","W",null,"W","W",null,"W","W","W",null,"W","W",null,"W","W","W",null,null,null,"W",null,"W","W",null,"W","W"],[null,"W","W","W","W","W"]],"timingvisible":false,"tabcounter":5,"stave":7,"totalstaves":8,"instrument":"7guitar","selectedtuning":"7_drop_a","version":"13"}

Member for

1 month
Submitted by satorus on Mon, 2020-10-26 07:08