Sound will begin in 5 seconds

f

01234567891011121314151617181920212223
E
B
G
D
A
E
B
0 1 2 3 4 5 6 7 8 9 10 11 12 13 14 15 16 17 18 19 20 21 22 23
Song Science #1: How Pros Use 6 Chords to Write Hit Songs
(/) Slide Up  (\) Slide Down  (h) Hammer On  (p) Pull Off  (b) Bend (r) Release (v) Vibrato

Stave 1:

E|------------------------------------------------------------------16--18--16--------------------------
B|--16--13----------------------13--15--13--------------------------------------20--18--16--------------
G|----------12--------------12--------------12----------------------------------------------19--17--15--
D|--------------13------13----------------------13------13--12------------------------------------------
A|------------------15------------------------------------------13--------------------------------------
E|--------------------------------------------------15--------------------------------------------------

Stave 2:

E|------------------------------------------------------------------------------------------------------
B|--------------------------21--21--21--15--11----------------------11--13--11--------------------------
G|----------------------------------------------10--------------10--------------10----------------------
D|--18--17--15--------------------------------------12------12----------------------12------------------
A|--------------15--13--11------------------------------13------------------------------13--15--13--11--
E|------------------------------------------------------------------------------------------------------

Stave 3:

E|--15--11----------------------11--13--11--10--13--11--10-------------------------------------------
B|----------11--------------11------------------------------13--11--9--13--11--9--12--11--9--12--12--
G|--------------12------12---------------------------------------------------------------------------
D|------------------13-------------------------------------------------------------------------------
A|---------------------------------------------------------------------------------------------------
E|---------------------------------------------------------------------------------------------------

Stave 4:

E|--
B|--
G|--
D|--
A|--
E|--

http://www.guitartabcreator.com
Guitar Tab Creator is intended to store guitar tab created through the tool. It currently does not support in-line text editing. Any text you place in here will be lost. If you need to comment on your tab, please use the "Tab Notes" section located below.