Bohemian Phapsody (for Eli)

Chords

01234567891011121314151617181920212223
E
B
G
D
A
E
B
0 1 2 3 4 5 6 7 8 9 10 11 12 13 14 15 16 17 18 19 20 21 22 23
(/) Slide Up  (\) Slide Down  (h) Hammer On  (p) Pull Off  (b) Bend (r) Release (v) Vibrato

Stave 1:

E|--1--1--1--1--1--
B|-----------------
G|-----------------
D|-----------------
A|-----------------
E|-----------------

Stave 2:

E|--0--0--0--0--0-----
B|-----------------1--
G|--------------------
D|--------------------
A|--------------------
E|--------------------

Stave 3:

E|--0--0--0--0--0--------
B|-----------------1--1--
G|-----------------------
D|-----------------------
A|-----------------------
E|-----------------------

Stave 4:

E|--------0--------------
B|--3--3-----3--3--3--0--
G|-----------------------
D|-----------------------
A|-----------------------
E|-----------------------

Stave 5:

E|--------------------
B|--------------------
G|--0--0--0--0--0--0--
D|--------------------
A|--------------------
E|--------------------

Stave 6:

E|--------
B|--------
G|--------
D|--3--3--
A|--------
E|--------

							http://www.guitartabcreator.com
Instruments
{"title":"Bohemian Phapsody (for Eli)","strings":[[[1,1,1,1,1],[".",".",".",".","."],[".",".",".",".","."],[".",".",".",".","."],[".",".",".",".","."],[".",".",".",".","."]],[[0,0,0,0,0,"."],[".",".",".",".",".",1],[".",".",".",".",".","."],[".",".",".",".",".","."],[".",".",".",".",".","."],[".",".",".",".",".","."]],[[0,0,0,0,0,".","."],[".",".",".",".",".",1,1],[".",".",".",".",".",".","."],[".",".",".",".",".",".","."],[".",".",".",".",".",".","."],[".",".",".",".",".",".","."]],[[".",".",0,".",".",".","."],[3,3,".",3,3,3,0],[".",".",".",".",".",".","."],[".",".",".",".",".",".","."],[".",".",".",".",".",".","."],[".",".",".",".",".",".","."]],[[".",".",".",".",".","."],[".",".",".",".",".","."],[0,0,0,0,0,0],[".",".",".",".",".","."],[".",".",".",".",".","."],[".",".",".",".",".","."]],[[".","."],[".","."],[".","."],[3,3],[".","."],[".","."]]],"numberofstrings":6,"notes":["E","B","G","D","A","E","B"],"capo":0,"stringnotes":["E4","B3","G3","D3","A2","E2"],"comments":["Stave 1:","Stave 2:","Stave 3:","Stave 4:","Stave 5:","Stave 6:"],"timing":[["W","W","W","W","W"],["W","W","W","W","W","W"],["W","W","W","W","W","W","W"],["W","W","W","W","W","W","W"],["W","W","W","W","W","W"],["W","W"]],"timingvisible":false,"tabcounter":7,"stave":3,"totalstaves":6,"instrument":"6guitar","selectedtuning":"6_standard","version":"13"}

Member for

2 months 1 week
Submitted by sarahleal__ on Tue, 2020-03-31 11:18