Sound will begin in 5 seconds

autumnleaves

Chords
01234567891011121314151617181920212223
E
B
G
D
A
E
B
0 1 2 3 4 5 6 7 8 9 10 11 12 13 14 15 16 17 18 19 20 21 22 23
Song Science #1: How Pros Use 6 Chords to Write Hit Songs
(/) Slide Up  (\) Slide Down  (h) Hammer On  (p) Pull Off  (b) Bend (r) Release (v) Vibrato

Stave 1:

E|------------------------------------------------------------------|--------------------------------------------------------|------------------
B|--------------------------------------------------15--14--13--12--|--11--13--10----------------------------------------10--|--13--10--11--13--
G|--------------15--14----------------------12--15------------------|--------------13--12--11--10--10----------------10------|------------------
D|----------17----------17--15--13--12--13--------------------------|----------------------------------------11--12----------|------------------
A|--15--18----------------------------------------------------------|--------------------------------------------------------|------------------
E|------------------------------------------------------------------|--------------------------------------------------------|------------------

Stave 2:

E|--10-----13-----17-----16-----15-----14-----13-----15-----11-----13-----10-----10-----|------------------13--11----------16--14--
B|--------------------------------------------------------------------------------------|----------10--13----------13--16----------
G|--------------------------------------------------------------------------------------|--10--12----------------------------------
D|--------------------------------------------------------------------------------------|------------------------------------------
A|--------------------------------------------------------------------------------------|------------------------------------------
E|--------------------------------------------------------------------------------------|------------------------------------------

Stave 3:

E|----------19--17----------|--16--14----------13--11--10--11--10----------------------------|------------------------|-----------
B|--16--19----------13--16--|----------10--13----------------------13--11--10---------10-----|------------------------|--8--8--9--
G|--------------------------|--------------------------------------------------11------------|--12--12--10--12--------|-----------
D|--------------------------|----------------------------------------------------------------|------------------------|-----------
A|--------------------------|----------------------------------------------------------------|------------------------|-----------
E|--------------------------|----------------------------------------------------------------|------------------------|-----------

Stave 4:

E|-----------------|----------------------9--10-----------------------------|-----------------6-----5-----------|---------------------------------
B|-----------------|---------------8--11---------11--8----------------------|--7--9--7--6--7-----7-----6--------10--11--10--11--13-----10--11--10--
G|-----------------|--10--8--7--8-----------------------10--8--7--8--9--10--|-----------------------------------10--12--10--12--14-----10--12--10--
D|--10--9----------|--------------------------------------------------------|-----------------------------------|---------------------------------
A|---------11--10--|--------------------------------------------------------|-----------------------------------|---------------------------------
E|-----------------|--------------------------------------------------------|-----------------------------------|---------------------------------

Stave 5:

E|----------|---------------------------------------------|---------------------------------------------------------|------------------
B|--11--13--|--15--16--15--16--18-----15--16--15--16--18--|--------------------------15--14--13--12--11--13--10-----|--10--11--10------
G|--12--14--|--15--17--15--17--19-----15--17--15--17--19--|------------------12--15---------------------------------|--------------12--
D|----------|---------------------------------------------|--15--13--12--13-----------------------------------------|------------------
A|----------|---------------------------------------------|---------------------------------------------------------|------------------
E|----------|---------------------------------------------|---------------------------------------------------------|------------------

Stave 6:

E|----------------|-----------------------------------------|---------------------------------|--
B|---------10-----|--------------11--13--14--14--13--11-----|--10--10------10--10------10-----|--
G|--11------------|--12------12-----------------------------|----------12----------12---------|--
D|----------------|------12---------------------------------|---------------------------------|--
A|----------------|-----------------------------------------|---------------------------------|--
E|----------------|-----------------------------------------|---------------------------------|--

Stave 7:

E|--11-----11--10-----------------|---------------------------------|-----------------------------|--
B|-----------------13-------------|----------10---------------------|-----------------------------|--
G|--------------------------------|--11----------11-------------12--|---------------10--8---------|--
D|------------------------12--13--|------12----------12--9--10------|--8-------------------8--10--|--
A|--------------------------------|---------------------------------|--------9--10----------------|--
E|--------------------------------|---------------------------------|-----------------------------|--

Stave 8:

E|---------------------------------|------------------------|----------------------11--10--|--
B|---------------------12----------|------------------------|------------8--9--10----------|--
G|---------10--13--12------10------|--------12--10----------|--8--9--10--------------------|--
D|--9--12----------------------13--|----------------10--12--|------------------------------|--
A|---------------------------------|------------------------|------------------------------|--
E|---------------------------------|------------------------|------------------------------|--

Stave 9:

E|---------------------------------|--------------------------13--10--|--11-----------------------------|--
B|--12--13--11-----------------10--|--13--10------12--11--------------|------13-------------------------|--
G|-------------------------10------|----------13----------12----------|----------12---------------------|--
D|-----------------11--12----------|----------------------------------|--------------13--11--12--13-----|--
A|---------------------------------|----------------------------------|---------------------------------|--
E|---------------------------------|----------------------------------|---------------------------------|--

Stave 10:

E|-------------------------|------------------------------|---------------------------|-------------------------10--
B|--11------10-------------|------------------------------|---------------------------|------------------8--11------
G|------12------11---------|-------------10--9------------|------------8--7-----------|------------7--8-------------
D|---------------------12--|------8--12---------11--8-----|-----6--10--------9--6-----|---------8-------------------
A|-------------------------|--10-----------------------9--|--8---------------------7--|--6--10----------------------
E|-------------------------|------------------------------|---------------------------|-----------------------------

Stave 11:

E|-----11------------------------------------------|-----------|--------------------------------11--
B|---------13--------------------------------------|-----------|---------------------10--11-----11--
G|-------------12---------------------------14-----|-----------|-------------10--12-------------10--
D|-----------------13--11-----12-----13------------|-----------|------9--12---------------------10--
A|-------------------------------------------------|-----------|--10--------------------------------
E|-------------------------------------------------|-----------|------------------------------------

Stave 12:

E|---------------------------------|------------------------------13--
B|--------------11--10-------------|----------------------11--10------
G|----------12-------------10------|--10--------------10--------------
D|--10--13---------------------13--|------10--12--11------------------
A|---------------------------------|----------------------------------
E|---------------------------------|----------------------------------

Stave 13:

E|--10------10----------------------|----------10------13--12--11------|-------------11-----------------
B|------11------11------------------|--11--------------------------12--|--13-----13------12---------11--
G|------------------12--10----------|------12------12------------------|------------------------11------
D|--------------------------12------|----------------------------------|--------------------------------
A|------------------------------13--|----------------------------------|--------------------------------
E|----------------------------------|----------------------------------|--------------------------------

Stave 14:

E|---------------------------------|----------------14--|--13--11------13--10----------10--|--
B|-----------------------------13--|--------11--15------|----------13----------11----------|--
G|--14---------13--14--15--11------|--------------------|--------------------------10------|--
D|---------12----------------------|--------------------|----------------------------------|--
A|---------------------------------|--------------------|----------------------------------|--
E|---------------------------------|--------------------|----------------------------------|--

Stave 15:

E|--11-----------------------------------------------------------------------------
B|------13-------------------------------------------------------------------------
G|----------12-----------------------------------------11--12----------------------
D|--------------13-------------------------10--12--13----------13--------------15--
A|------------------15--12-----10--12--13--------------------------15--13--12------
E|---------------------------------------------------------------------------------

Stave 16:

E|------------------
B|------------------
G|------------------
D|--15--13--12--13--
A|------------------
E|------------------

http://www.guitartabcreator.com
Guitar Tab Creator is intended to store guitar tab created through the tool. It currently does not support in-line text editing. Any text you place in here will be lost. If you need to comment on your tab, please use the "Tab Notes" section located below.