Sound will begin in 5 seconds

A

Chords
01234567891011121314151617181920212223
E
B
G
D
A
E
B
0 1 2 3 4 5 6 7 8 9 10 11 12 13 14 15 16 17 18 19 20 21 22 23
Song Science #1: How Pros Use 6 Chords to Write Hit Songs
(/) Slide Up  (\) Slide Down  (h) Hammer On  (p) Pull Off  (b) Bend (r) Release (v) Vibrato

Stave 1:

E|-----------------------------------------------------|--------------x-----x-----|--x--x--3--3--x--2--x--
B|-----------------------------------------------------|--------------x-----x-----|--x--x--3--3--x--3--x--
G|-----------4-------0-----------3-------------3-------|--------4--4--x--0--x--0--|--x--x--0--0--x--2--x--
D|--------5-------------0-----3-----3-------3----------|--------5--5--x--4--x--2--|--x--x--2--2--x--0--x--
A|-----7--------3/5--------3-----------0h3--------3/5--|--------7--7--x--5--x--3--|--x--x--2--2--x-----x--
E|--0--------------------------------------------------|--0--0--------x--0--x--0--|--x--x--0--0--x-----x--

Stave 2:

E|--3-----3--
B|--3-----3--
G|--0--x--0--
D|--2--x--2--
A|--3--x--3--
E|-----x-----

Stave 3:

E|--
B|--
G|--
D|--
A|--
E|--

http://www.guitartabcreator.com
Guitar Tab Creator is intended to store guitar tab created through the tool. It currently does not support in-line text editing. Any text you place in here will be lost. If you need to comment on your tab, please use the "Tab Notes" section located below.