Delay song by Kmac2021

01234567891011121314151617181920212223
E
B
G
D
A
E
B
0 1 2 3 4 5 6 7 8 9 10 11 12 13 14 15 16 17 18 19 20 21 22 23
(/) Slide Up  (\) Slide Down  (h) Hammer On  (p) Pull Off  (b) Bend (r) Release (v) Vibrato

Palm muted

E|--|:--------------------------------------------------|-----------------------------------------------------|--
B|--|:--------------------------------------------------|--------------------------10--------10--------10-----|--
G|--|:-----------------6--7--6--------------------------|-----------------6--7--6------7--6------7--6------7--|--
D|--|:-----------4--7-----------7--4--------------------|-----------4--7--------------------------------------|--
A|--|:--2--4--5-----------------------5--4-----4--5-----|-----4--5--------------------------------------------|--
E|--|:--------------------------------------5--------5--|--3--------------------------------------------------|--

Palm muted

E|--------------------------------------------------|------------------------------------------------------:|--
B|--------------------------------------------------|--------------------------10--------10--------10--12--:|--
G|-----------------6--7--6--------------------------|-----------------6--7--6------7--6------7--6----------:|--
D|-----------4--7-----------7--4--------------------|-----------4--7---------------------------------------:|--
A|--2--4--5-----------------------5--4-----4--5-----|-----4--5---------------------------------------------:|--
E|--------------------------------------5--------5--|--3---------------------------------------------------:|--

Palm muted except the 1st string

E|--|:----------------------------------------10--12----------|----------------------------------------10--12----------|--
B|--|:--------------------------5--7--10--12----------10--12--|--------------------------5--7--10--12----------10--12--|--
G|--|:--------------------7--9--------------------------------|--------------------7--9--------------------------------|--
D|--|:--------------7--9--------------------------------------|--------------7--9--------------------------------------|--
A|--|:--------7--9--------------------------------------------|--------7--9--------------------------------------------|--
E|--|:--7--9--------------------------------------------------|--5--7--------------------------------------------------|--

Palm muted except the 1st string

E|---------------------------------------7--9---------|---------------------------------------7--9---------|--
B|--------------------------------7--10--------7--10--|--------------------------------7--10--------7--10--|--
G|--------------------4--6--6--7----------------------|--------------------4--6--6--7----------------------|--
D|--------------4--7----------------------------------|--------------4--7----------------------------------|--
A|--------4--5----------------------------------------|--------4--5----------------------------------------|--
E|--2--3----------------------------------------------|--2--3----------------------------------------------|--

Palm muted except the 1st string

E|--------------------------------------5--7--------|--------------------------------------5--7--------:|--
B|--------------------------0--2--5--7--------5--7--|--------------------------0--2--5--7--------5--7--:|--
G|--------------------2--4--------------------------|--------------------2--4--------------------------:|--
D|--------------2--4--------------------------------|--------------2--4--------------------------------:|--
A|--------2--4--------------------------------------|--------2--4--------------------------------------:|--
E|--0--2--------------------------------------------|--0--2--------------------------------------------:|--

Clean

E|-----------------0--------|-----------------0--------|-----------------0--------|-----------------0--------|--
B|--------------0-----------|--------------0-----------|--------------0-----------|--------------0-----------|--
G|-----------6--------------|-----------2--------------|-----------4--------------|-----------4--------------|--
D|--------9-----------------|--------5-----------------|--------7-----------------|--------7-----------------|--
A|-----9--------------------|-----5--------------------|-----7--------------------|-----7--------------------|--
E|--7-----------------------|--3-----------------------|--5-----------------------|--5-----------------------|--

Clean

E|-----------------0--------|-----------------0--------|-----------------0--------|-------------------0--------|-----
B|--------------0-----------|--------------0-----------|--------------0-----------|----------------0-----------|-----
G|-----------6--------------|-----------2--------------|-----------4--------------|-------------7--------------|-----
D|--------9-----------------|--------5-----------------|--------7-----------------|---------10-----------------|-----
A|-----9--------------------|-----5--------------------|-----7--------------------|-----10---------------------|-----
E|--7-----------------------|--3-----------------------|--5-----------------------|--8-------------------------|-----

Clean

E|--|:-------------------0--------|-----------------0--------|-------------------0--------|-------------------0--------:|--
B|--|:----------------0-----------|--------------0-----------|----------------0-----------|----------------0-----------:|--
G|--|:-------------8--------------|-----------1--------------|-------------7--------------|-------------7--------------:|--
D|--|:---------11-----------------|--------4-----------------|---------10-----------------|---------10-----------------:|--
A|--|:-----11---------------------|-----4--------------------|-----10---------------------|-----10---------------------:|--
E|--|:--9-------------------------|--2-----------------------|--8-------------------------|--8-------------------------:|--

Distorded, repeat till crazy

E|--0--0--0--x--0--0--0--0--0--|--0--0--0--x--0--0--0--0--0--|--0--0--0--x--0--0--0--0--0--|--0--0--0--x--0---0---0---0---0---|--
B|--0--0--0--x--0--0--0--0--0--|--0--0--0--x--0--0--0--0--0--|--0--0--0--x--0--0--0--0--0--|--0--0--0--x--0---0---0---0---0---|--
G|--6--6--6--x--2--2--2--2--2--|--4--4--4--x--4--4--4--4--4--|--6--6--6--x--2--2--2--2--2--|--4--4--4--x--7---7---7---7---7---|--
D|--9--9--9--x--5--5--5--5--5--|--7--7--7--x--7--7--7--7--7--|--9--9--9--x--5--5--5--5--5--|--7--7--7--x--10--10--10--10--10--|--
A|--9--9--9--x--5--5--5--5--5--|--7--7--7--x--7--7--7--7--7--|--9--9--9--x--5--5--5--5--5--|--7--7--7--x--10--10--10--10--10--|--
E|--7--7--7--x--3--3--3--3--3--|--5--5--5--x--5--5--5--5--5--|--7--7--7--x--3--3--3--3--3--|--5--5--5--x--8---8---8---8---8---|--



E|--0---0---0---0---0--0--0--0--0--|--0---0---0---0---0---0---0---0---0---|--0---0---0---0---0--0--0--0--0--|--0---0---0---0---0---0---0---0---0---|--
B|--0---0---0---0---0--0--0--0--0--|--0---0---0---0---0---0---0---0---0---|--0---0---0---0---0--0--0--0--0--|--0---0---0---0---0---0---0---0---0---|--
G|--8---8---8---8---1--1--1--1--1--|--7---7---7---7---7---7---7---7---7---|--8---8---8---8---1--1--1--1--1--|--7---7---7---7---7---7---7---7---7---|--
D|--11--11--11--11--4--4--4--4--4--|--10--10--10--10--10--10--10--10--10--|--11--11--11--11--4--4--4--4--4--|--10--10--10--10--10--10--10--10--10--|--
A|--11--11--11--11--4--4--4--4--4--|--10--10--10--10--10--10--10--10--10--|--11--11--11--11--4--4--4--4--4--|--10--10--10--10--10--10--10--10--10--|--
E|--9---9---9---9---2--2--2--2--2--|--8---8---8---8---8---8---8---8---8---|--9---9---9---9---2--2--2--2--2--|--8---8---8---8---8---8---8---8---8---|--

							http://www.guitartabcreator.com
Chords

Tab Notes
Hello. Again, I do not own this song, this are tabs I came up by looking and listening to Kmac's video. Kmac uses a 7 string guitar detuned. With a 6 string I THINK it is D G C F# B e, but I did standar tuning.
Instruments
{"strings":[[["|:",".",".",".",".",".",".",".",".",".",".",".",".",".",".",".",".","|",".",".",".",".",".",".",".",".",".",".",".",".",".",".",".",".","|"],["|:",".",".",".",".",".",".",".",".",".",".",".",".",".",".",".",".","|",".",".",".",".",".",".",".",".",10,".",".",10,".",".",10,".","|"],["|:",".",".",".",".",".",6,7,6,".",".",".",".",".",".",".",".","|",".",".",".",".",".",6,7,6,".",7,6,".",7,6,".",7,"|"],["|:",".",".",".",4,7,".",".",".",7,4,".",".",".",".",".",".","|",".",".",".",4,7,".",".",".",".",".",".",".",".",".",".",".","|"],["|:",2,4,5,".",".",".",".",".",".",".",5,4,".",4,5,".","|",".",4,5,".",".",".",".",".",".",".",".",".",".",".",".",".","|"],["|:",".",".",".",".",".",".",".",".",".",".",".",".",5,".",".",5,"|",3,".",".",".",".",".",".",".",".",".",".",".",".",".",".",".","|"]],[[".",".",".",".",".",".",".",".",".",".",".",".",".",".",".",".","|",".",".",".",".",".",".",".",".",".",".",".",".",".",".",".",".",":|"],[".",".",".",".",".",".",".",".",".",".",".",".",".",".",".",".","|",".",".",".",".",".",".",".",".",10,".",".",10,".",".",10,12,":|"],[".",".",".",".",".",6,7,6,".",".",".",".",".",".",".",".","|",".",".",".",".",".",6,7,6,".",7,6,".",7,6,".",".",":|"],[".",".",".",4,7,".",".",".",7,4,".",".",".",".",".",".","|",".",".",".",4,7,".",".",".",".",".",".",".",".",".",".",".",":|"],[2,4,5,".",".",".",".",".",".",".",5,4,".",4,5,".","|",".",4,5,".",".",".",".",".",".",".",".",".",".",".",".",".",":|"],[".",".",".",".",".",".",".",".",".",".",".",".",5,".",".",5,"|",3,".",".",".",".",".",".",".",".",".",".",".",".",".",".",".",":|"]],[["|:",".",".",".",".",".",".",".",".",".",".",".",".",10,12,".",".","|",".",".",".",".",".",".",".",".",".",".",".",".",10,12,".",".","|"],["|:",".",".",".",".",".",".",".",".",5,7,10,12,".",".",10,12,"|",".",".",".",".",".",".",".",".",5,7,10,12,".",".",10,12,"|"],["|:",".",".",".",".",".",".",7,9,".",".",".",".",".",".",".",".","|",".",".",".",".",".",".",7,9,".",".",".",".",".",".",".",".","|"],["|:",".",".",".",".",7,9,".",".",".",".",".",".",".",".",".",".","|",".",".",".",".",7,9,".",".",".",".",".",".",".",".",".",".","|"],["|:",".",".",7,9,".",".",".",".",".",".",".",".",".",".",".",".","|",".",".",7,9,".",".",".",".",".",".",".",".",".",".",".",".","|"],["|:",7,9,".",".",".",".",".",".",".",".",".",".",".",".",".",".","|",5,7,".",".",".",".",".",".",".",".",".",".",".",".",".",".","|"]],[[".",".",".",".",".",".",".",".",".",".",".",".",7,9,".",".","|",".",".",".",".",".",".",".",".",".",".",".",".",7,9,".",".","|"],[".",".",".",".",".",".",".",".",".",".",7,10,".",".",7,10,"|",".",".",".",".",".",".",".",".",".",".",7,10,".",".",7,10,"|"],[".",".",".",".",".",".",4,6,6,7,".",".",".",".",".",".","|",".",".",".",".",".",".",4,6,6,7,".",".",".",".",".",".","|"],[".",".",".",".",4,7,".",".",".",".",".",".",".",".",".",".","|",".",".",".",".",4,7,".",".",".",".",".",".",".",".",".",".","|"],[".",".",4,5,".",".",".",".",".",".",".",".",".",".",".",".","|",".",".",4,5,".",".",".",".",".",".",".",".",".",".",".",".","|"],[2,3,".",".",".",".",".",".",".",".",".",".",".",".",".",".","|",2,3,".",".",".",".",".",".",".",".",".",".",".",".",".",".","|"]],[[".",".",".",".",".",".",".",".",".",".",".",".",5,7,".",".","|",".",".",".",".",".",".",".",".",".",".",".",".",5,7,".",".",":|"],[".",".",".",".",".",".",".",".",0,2,5,7,".",".",5,7,"|",".",".",".",".",".",".",".",".",0,2,5,7,".",".",5,7,":|"],[".",".",".",".",".",".",2,4,".",".",".",".",".",".",".",".","|",".",".",".",".",".",".",2,4,".",".",".",".",".",".",".",".",":|"],[".",".",".",".",2,4,".",".",".",".",".",".",".",".",".",".","|",".",".",".",".",2,4,".",".",".",".",".",".",".",".",".",".",":|"],[".",".",2,4,".",".",".",".",".",".",".",".",".",".",".",".","|",".",".",2,4,".",".",".",".",".",".",".",".",".",".",".",".",":|"],[0,2,".",".",".",".",".",".",".",".",".",".",".",".",".",".","|",0,2,".",".",".",".",".",".",".",".",".",".",".",".",".",".",":|"]],[[".",".",".",".",".",0,"_","_","|",".",".",".",".",".",0,"_","_","|",".",".",".",".",".",0,"_","_","|",".",".",".",".",".",0,"_","_","|"],[".",".",".",".",0,".","_","_","|",".",".",".",".",0,".","_","_","|",".",".",".",".",0,".","_","_","|",".",".",".",".",0,".","_","_","|"],[".",".",".",6,".",".","_","_","|",".",".",".",2,".",".","_","_","|",".",".",".",4,".",".","_","_","|",".",".",".",4,".",".","_","_","|"],[".",".",9,".",".",".","_","_","|",".",".",5,".",".",".","_","_","|",".",".",7,".",".",".","_","_","|",".",".",7,".",".",".","_","_","|"],[".",9,".",".",".",".","_","_","|",".",5,".",".",".",".","_","_","|",".",7,".",".",".",".","_","_","|",".",7,".",".",".",".","_","_","|"],[7,".",".",".",".",".","_","_","|",3,".",".",".",".",".","_","_","|",5,".",".",".",".",".","_","_","|",5,".",".",".",".",".","_","_","|"]],[[".",".",".",".",".",0,"_","_","|",".",".",".",".",".",0,"_","_","|",".",".",".",".",".",0,"_","_","|",".",".",".",".",".",0,"_","_","|","_"],[".",".",".",".",0,".","_","_","|",".",".",".",".",0,".","_","_","|",".",".",".",".",0,".","_","_","|",".",".",".",".",0,".","_","_","|","_"],[".",".",".",6,".",".","_","_","|",".",".",".",2,".",".","_","_","|",".",".",".",4,".",".","_","_","|",".",".",".",7,".",".","_","_","|","_"],[".",".",9,".",".",".","_","_","|",".",".",5,".",".",".","_","_","|",".",".",7,".",".",".","_","_","|",".",".",10,".",".",".","_","_","|","_"],[".",9,".",".",".",".","_","_","|",".",5,".",".",".",".","_","_","|",".",7,".",".",".",".","_","_","|",".",10,".",".",".",".","_","_","|","_"],[7,".",".",".",".",".","_","_","|",3,".",".",".",".",".","_","_","|",5,".",".",".",".",".","_","_","|",8,".",".",".",".",".","_","_","|","_"]],[["|:",".",".",".",".",".",0,"_","_","|",".",".",".",".",".",0,"_","_","|",".",".",".",".",".",0,"_","_","|",".",".",".",".",".",0,"_","_",":|"],["|:",".",".",".",".",0,".","_","_","|",".",".",".",".",0,".","_","_","|",".",".",".",".",0,".","_","_","|",".",".",".",".",0,".","_","_",":|"],["|:",".",".",".",8,".",".","_","_","|",".",".",".",1,".",".","_","_","|",".",".",".",7,".",".","_","_","|",".",".",".",7,".",".","_","_",":|"],["|:",".",".",11,".",".",".","_","_","|",".",".",4,".",".",".","_","_","|",".",".",10,".",".",".","_","_","|",".",".",10,".",".",".","_","_",":|"],["|:",".",11,".",".",".",".","_","_","|",".",4,".",".",".",".","_","_","|",".",10,".",".",".",".","_","_","|",".",10,".",".",".",".","_","_",":|"],["|:",9,".",".",".",".",".","_","_","|",2,".",".",".",".",".","_","_","|",8,".",".",".",".",".","_","_","|",8,".",".",".",".",".","_","_",":|"]],[[0,0,0,"x0",0,0,0,0,0,"|",0,0,0,"x0",0,0,0,0,0,"|",0,0,0,"x12",0,0,0,0,0,"|",0,0,0,"x15",0,0,0,0,0,"|"],[0,0,0,"x0",0,0,0,0,0,"|",0,0,0,"x0",0,0,0,0,0,"|",0,0,0,"x12",0,0,0,0,0,"|",0,0,0,"x15",0,0,0,0,0,"|"],[6,6,6,"x0",2,2,2,2,2,"|",4,4,4,"x0",4,4,4,4,4,"|",6,6,6,"x12",2,2,2,2,2,"|",4,4,4,"x15",7,7,7,7,7,"|"],[9,9,9,"x0",5,5,5,5,5,"|",7,7,7,"x0",7,7,7,7,7,"|",9,9,9,"x12",5,5,5,5,5,"|",7,7,7,"x15",10,10,10,10,10,"|"],[9,9,9,"x0",5,5,5,5,5,"|",7,7,7,"x0",7,7,7,7,7,"|",9,9,9,"x12",5,5,5,5,5,"|",7,7,7,"x15",10,10,10,10,10,"|"],[7,7,7,"x0",3,3,3,3,3,"|",5,5,5,"x0",5,5,5,5,5,"|",7,7,7,"x12",3,3,3,3,3,"|",5,5,5,"x15",8,8,8,8,8,"|"]],[[0,0,0,0,0,0,0,0,0,"|",0,0,0,0,0,0,0,0,0,"|",0,0,0,0,0,0,0,0,0,null,"|",0,0,0,0,0,0,0,0,0,"|"],[0,0,0,0,0,0,0,0,0,"|",0,0,0,0,0,0,0,0,0,"|",0,0,0,0,0,0,0,0,0,null,"|",0,0,0,0,0,0,0,0,0,"|"],[8,8,8,8,1,1,1,1,1,"|",7,7,7,7,7,7,7,7,7,"|",8,8,8,8,1,1,1,1,1,null,"|",7,7,7,7,7,7,7,7,7,"|"],[11,11,11,11,4,4,4,4,4,"|",10,10,10,10,10,10,10,10,10,"|",11,11,11,11,4,4,4,4,4,null,"|",10,10,10,10,10,10,10,10,10,"|"],[11,11,11,11,4,4,4,4,4,"|",10,10,10,10,10,10,10,10,10,"|",11,11,11,11,4,4,4,4,4,null,"|",10,10,10,10,10,10,10,10,10,"|"],[9,9,9,9,2,2,2,2,2,"|",8,8,8,8,8,8,8,8,8,"|",9,9,9,9,2,2,2,2,2,null,"|",8,8,8,8,8,8,8,8,8,"|"]]],"numberofstrings":6,"notes":["E","B","G","D","A","E","B"],"capo":0,"stringnotes":["E4","B3","G3","D3","A2","E2"],"comments":["Palm muted","Palm muted","Palm muted except the 1st string","Palm muted except the 1st string","Palm muted except the 1st string","Clean","Clean","Clean","Distorded, repeat till crazy",""],"timing":[["W","W","W","W","W","W","W","W","W","W","W","W","W","W","W","W","W","W","W","W","W","W","W","W","W","W","W","W","W","W","W","W","W","W","W","W","W","W","W","W","W","W","W","W","W","W","W","W","W","W","W"],["W","W","W","W","W","W","W","W","W","W","W","W","W","W","W","W","W","W","W","W","W","W","W","W","W","W","W","W","W","W","W","W","W"],[null,"W","W","W","W","W","W","W","W","W","W","W","W","W","W","W","W",null,"W","W","W","W","W","W","W","W","W","W","W","W","W","W","W","W"],["W","W","W","W","W","W","W","W","W","W","W","W","W","W","W","W",null,"W","W","W","W","W","W","W","W","W","W","W","W","W","W","W","W"],["W","W","W","W","W","W","W","W","W","W","W","W","W","W","W","W",null,"W","W","W","W","W","W","W","W","W","W","W","W","W","W","W","W"],["W","W","W","W","W","W","W",null,null,"W","W","W","W","W","W",null,null,null,"W","W","W","W","W","W",null,null,null,"W","W","W","W","W","W"],["W","W","W","W","W","W",null,null,null,"W","W","W","W","W","W",null,null,null,"W","W","W","W","W","W",null,null,null,"W","W","W","W","W","W"],[null,"W","W","W","W","W","W",null,null,null,"W","W","W","W","W","W",null,null,null,"W","W","W","W","W","W",null,null,null,"W","W","W","W","W","W"],["W","W","W","W","W","W","W","W","W",null,"W","W","W","W","W","W","W","W","W",null,"W","W","W","W","W","W","W","W","W",null,"W","W","W","W","W","W","W","W","W"],["W","W","W","W","W","W","W","W","W",null,"W","W","W","W","W","W","W","W","W",null,"W","W","W","W","W","W","W","W","W",null,null,"W","W","W","W","W","W","W","W","W"]],"timingvisible":false,"tabcounter":41,"stave":9,"totalstaves":10,"instrument":"6guitar","selectedtuning":"6_standard","version":"13"}

Member for

1 hour 52 minutes
Submitted by Santiago Perez on Sat, 2021-02-20 17:07