is there anybody out there ?

Chords

01234567891011121314151617181920212223
E
B
G
D
A
E
B
0 1 2 3 4 5 6 7 8 9 10 11 12 13 14 15 16 17 18 19 20 21 22 23
(/) Slide Up  (\) Slide Down  (h) Hammer On  (p) Pull Off  (b) Bend (r) Release (v) Vibrato

Stave 1:

E|--------------0-----------------------0-----------------------0-----------------------0--------------
B|-----------1-----1-----------------1-----1-----------------1-----1-----------------1-----1-----------
G|--------2-----------2-----2-----2-----------2-----2-----2-----------2-----2-----2-----------2-----2--
D|-----2-----------------2-----3-----------------3-----4-----------------4-----3-----------------3-----
A|-----------------------------------------------------------------------------------------------------
E|-----------------------------------------------------------------------------------------------------

Stave 2:

E|-----------0-----------0-----------0-----------0--
B|--------1-----------1-----------1-----------1-----
G|-----2-----------2-----------2-----------2--------
D|--2-----------0-----------------------------------
A|--------------------------3-----------2-----------
E|--------------------------------------------------

Stave 3:

E|--------------0-----------------------------------
B|-----------1-----1-----------------1--------------
G|--------2-----------2-----------2-----2-----------
D|-----2-----------------2-----2-----------2-----2--
A|--0-----------------------0-----------------0-----
E|--------------------------------------------------

Stave 4:

E|-----------0-----------------------0-----------------------0-----------------------0--------------
B|--------1-----1-----------------1-----1-----------------1-----1-----------------1-----1-----------
G|-----2-----------2-----2-----2-----------2-----2-----2-----------2-----2-----2-----------2-----2--
D|--2-----------------2-----3-----------------3-----4-----------------4-----3-----------------3-----
A|--------------------------------------------------------------------------------------------------
E|--------------------------------------------------------------------------------------------------

Stave 5:

E|-----------------------0-----------0--------------------------0-----------------------------------------------0-----------
B|--------1-----------1-----------1-----1--------------------1-----1-----------------1-----------------------1-----1--------
G|-----2-----------2-----------2-----------2--------------2-----------2-----------2-----2-----------------2-----------2-----
D|--3--------2--0-----------0--------------------------2-----------------2-----2-----------2-----2-----2-----------------2--
A|--------------------------------------------3--2--0-----------------------0-----------------0-----0-----------------------
E|--------------------------------------------------------------------------------------------------------------------------

Stave 6:

E|--------------0--
B|-----------1-----
G|--------2--------
D|-----2-----------
A|--0--------------
E|-----------------

Stave 7:

E|--------------0--------------------------0--------------------0----------------------------------
B|-----------1-----1-----------------1--3-----3--1-----------0-----0-------5-----3-----1-----0-----
G|--------0-----------0-----------0-----------------------0-----------2/5-----5-----4-----2-----0--
D|-----2-----------------2-----0-----------------------2-------------------------------------------
A|--3-----------------------2-----------------------0----------------------------------------------
E|-------------------------------------------------------------------------------------------------

Stave 8:

E|--------------0--------------------------0--------------------0--------8-----7--
B|-----------1-----1-----------------1--3-----3--1-----------0-----0--------------
G|--------0-----------0-----------0-----------------------2-----------9-----7-----
D|-----2-----------------2-----0-----------------------2--------------------------
A|--3-----------------------2-----------------------0-----------------------------
E|--------------------------------------------------------------------------------

Stave 9:

E|--
B|--
G|--
D|--
A|--
E|--

							http://www.guitartabcreator.com
Instruments
{"strings":[[[".",".",".",".",0,".",".",".",".",".",".",".",0,".",".",".",".",".",".",".",0,".",".",".",".",".",".",".",0,".",".",".","."],[".",".",".",1,".",1,".",".",".",".",".",1,".",1,".",".",".",".",".",1,".",1,".",".",".",".",".",1,".",1,".",".","."],[".",".",2,".",".",".",2,".",2,".",2,".",".",".",2,".",2,".",2,".",".",".",2,".",2,".",2,".",".",".",2,".",2],[".",2,".",".",".",".",".",2,".",3,".",".",".",".",".",3,".",4,".",".",".",".",".",4,".",3,".",".",".",".",".",3,"."],[".",".",".",".",".",".",".",".",".",".",".",".",".",".",".",".",".",".",".",".",".",".",".",".",".",".",".",".",".",".",".",".","."],[".",".",".",".",".",".",".",".",".",".",".",".",".",".",".",".",".",".",".",".",".",".",".",".",".",".",".",".",".",".",".",".","."]],[[".",".",".",0,".",".",".",0,".",".",".",0,".",".",".",0],[".",".",1,".",".",".",1,".",".",".",1,".",".",".",1,"."],[".",2,".",".",".",2,".",".",".",2,".",".",".",2,".","."],[2,".",".",".",0,".",".",".",".",".",".",".",".",".",".","."],[".",".",".",".",".",".",".",".",3,".",".",".",2,".",".","."],[".",".",".",".",".",".",".",".",".",".",".",".",".",".",".","."]],[[".",".",".",".",0,".",".",".",".",".",".",".",".",".",".","."],[".",".",".",1,".",1,".",".",".",".",".",1,".",".",".","."],[".",".",2,".",".",".",2,".",".",".",2,".",2,".",".","."],[".",2,".",".",".",".",".",2,".",2,".",".",".",2,".",2],[0,".",".",".",".",".",".",".",0,".",".",".",".",".",0,"."],[".",".",".",".",".",".",".",".",".",".",".",".",".",".",".","."]],[[".",".",".",0,".",".",".",".",".",".",".",0,".",".",".",".",".",".",".",0,".",".",".",".",".",".",".",0,".",".",".","."],[".",".",1,".",1,".",".",".",".",".",1,".",1,".",".",".",".",".",1,".",1,".",".",".",".",".",1,".",1,".",".","."],[".",2,".",".",".",2,".",2,".",2,".",".",".",2,".",2,".",2,".",".",".",2,".",2,".",2,".",".",".",2,".",2],[2,".",".",".",".",".",2,".",3,".",".",".",".",".",3,".",4,".",".",".",".",".",4,".",3,".",".",".",".",".",3,"."],[".",".",".",".",".",".",".",".",".",".",".",".",".",".",".",".",".",".",".",".",".",".",".",".",".",".",".",".",".",".",".","."],[".",".",".",".",".",".",".",".",".",".",".",".",".",".",".",".",".",".",".",".",".",".",".",".",".",".",".",".",".",".",".","."]],[[".",".",".",".",".",".",".",0,".",".",".",0,".",".",".",".",".",".",".",".",0,".",".",".",".",".",".",".",".",".",".",".",".",".",".",".",0,".",".","."],[".",".",1,".",".",".",1,".",".",".",1,".",1,".",".",".",".",".",".",1,".",1,".",".",".",".",".",1,".",".",".",".",".",".",".",1,".",1,".","."],[".",2,".",".",".",2,".",".",".",2,".",".",".",2,".",".",".",".",2,".",".",".",2,".",".",".",2,".",2,".",".",".",".",".",2,".",".",".",2,"."],[3,".",".",2,0,".",".",".",0,".",".",".",".",".",".",".",".",2,".",".",".",".",".",2,".",2,".",".",".",2,".",2,".",2,".",".",".",".",".",2],[".",".",".",".",".",".",".",".",".",".",".",".",".",".",3,2,0,".",".",".",".",".",".",".",0,".",".",".",".",".",0,".",0,".",".",".",".",".",".","."],[".",".",".",".",".",".",".",".",".",".",".",".",".",".",".",".",".",".",".",".",".",".",".",".",".",".",".",".",".",".",".",".",".",".",".",".",".",".",".","."]],[[".",".",".",".",0],[".",".",".",1,"."],[".",".",2,".","."],[".",2,".",".","."],[0,".",".",".","."],[".",".",".",".","."]],[[".",".",".",".",0,".",".",".",".",".",".",".",".",0,".",".",".",".",".",".",0,".",".",".",".",".",".",".",".",".",".",".","."],[".",".",".",1,".",1,".",".",".",".",".",1,3,".",3,1,".",".",".",0,".",0,".",".",".",5,".",3,".",1,".",0,"."],[".",".",0,".",".",".",0,".",".",".",0,".",".",".",".",".",".",".",0,".",".",".",2,"/",5,".",5,".",4,".",2,".",0],[".",2,".",".",".",".",".",2,".",0,".",".",".",".",".",".",".",2,".",".",".",".",".",".",".",".",".",".",".",".",".",".","."],[3,".",".",".",".",".",".",".",2,".",".",".",".",".",".",".",0,".",".",".",".",".",".",".",".",".",".",".",".",".",".",".","."],[".",".",".",".",".",".",".",".",".",".",".",".",".",".",".",".",".",".",".",".",".",".",".",".",".",".",".",".",".",".",".",".","."]],[[".",".",".",".",0,".",".",".",".",".",".",".",".",0,".",".",".",".",".",".",0,".",".",8,".",7],[".",".",".",1,".",1,".",".",".",".",".",1,3,".",3,1,".",".",".",0,".",0,".",".",".","."],[".",".",0,".",".",".",0,".",".",".",0,".",".",".",".",".",".",".",2,".",".",".",9,".",7,"."],[".",2,".",".",".",".",".",2,".",0,".",".",".",".",".",".",".",2,".",".",".",".",".",".",".","."],[3,".",".",".",".",".",".",".",2,".",".",".",".",".",".",".",0,".",".",".",".",".",".",".",".","."],[".",".",".",".",".",".",".",".",".",".",".",".",".",".",".",".",".",".",".",".",".",".",".",".",".","."]],[[],[],[],[],[],[]]],"numberofstrings":6,"notes":["E","B","G","D","A","E","B"],"capo":0,"stringnotes":["E4","B3","G3","D3","A2","E2"],"comments":["Stave 1:","Stave 2:","Stave 3:","Stave 4:","Stave 5:","Stave 6:","Stave 7:","Stave 8:","Stave 9:"],"timing":[[null,null,null,null,null,null,null,null,null,null,null,null,null,null,null,null,null,null,null,null,null,null,null,null,null,null,null,null,null,null,null,null,null,"W","W","W","W","W","W","W","W",null,null,null],["W","W","W","W","W","W","W","W","W","W","W","W","W","W","W","W"],["W","W","W","W","W","W","W","W","W","W","W","W","W","W","W","W"],["W","W","W","W","W","W","W","W","W","W","W","W","W","W","W","W","W","W","W","W","W","W","W","W","W","W","W","W","W","W","W","W"],["W","W","W","W","W","W","W","W","W","W","W","W","W","W","W","W","W","W","W","W","W","W","W","W","W","W","W","W","W","W","W","W","W","W","W","W","W","W","W","W","W","W","W","W","W"],["W","W","W","W","W"],["W","W","W","W","W","W","W","W","W","W","W","W","W","W","W","W","W","W","W","W","W","W","W","W","W","W","W","W","W","W","W","W","W"],["W","W","W","W","W","W","W","W","W","W","W","W","W","W","W","W","W","W","W","W","W","W","W","W","W","W"],[]],"timingvisible":false,"tabcounter":0,"stave":8,"totalstaves":9,"instrument":"6guitar","selectedtuning":"6_standard","version":"13"}

Member for

1 month 2 weeks
Submitted by Sanad Hijaz on Mon, 2020-10-19 14:04