Sound will begin in 5 seconds

the illusion of life

Chords
01234567891011121314151617181920212223
E
B
G
D
A
E
B
0 1 2 3 4 5 6 7 8 9 10 11 12 13 14 15 16 17 18 19 20 21 22 23
Song Science #1: How Pros Use 6 Chords to Write Hit Songs
(/) Slide Up  (\) Slide Down  (h) Hammer On  (p) Pull Off  (b) Bend (r) Release (v) Vibrato

Stave 1:

E|-----------------------------------------------------------------------------------------------------------------------------------------
B|-------------------------------------------------------------------------------------12--14--15--20--15--14--12--------------------------
G|--------11--7-------------------------------7------7-------------------------------------------------------------------------------------
D|---------------11--7------------------------11-----11------------------------------------------------------------12----------14------16--
A|----------------------11--7--5-----------------------------------------------------------------------------------------------------------
E|------------------------------------------------------------------12--14--12-----------------------------------------14--12------12------
B|--0--0--------------------------0--0--0--0------0------0--12--14--------------14--0------------------------------------------------------

Stave 2:

E|--------------------------------------------------------------------------------------------
B|--------------------------------------------------------------------------------------------
G|-----------5------------------7--------5---------------5------------------7-----------------
D|--------------9-----------11------------------------------9-----------11--------------------
A|-----------------7-----9-------------------------------------7-----9------------------------
E|--------------------7-------------------------------------------7---------------------------
B|--0--0--0------------------------0--0-----12--0--0--0------------------------0--0--0--0--0--

Stave 3:

E|---------------------------------------------------------------------------------------------------------------------------------------------------------------------------
B|---------------------------------------------------------------------------------------------------------------------------------------------------------------------------
G|-----------------------------------------------------14---------------------18---------14---------------------7------------------------------------------------------7--9--
D|------------------------------------------14-------------16---------------------16---------12--------------------11----------------------------------------7--9--11--------
A|--------------12--14-----------14--16---------16------------------------------------------------------------------------5------------------------7--9--11------------------
E|---------------------------------------------------------------------------------------------------------------------------9-----------7--9--11----------------------------
B|--0--0--0--0----------0--0--0----------0----------0----------0--0--0--0--0----------0----------0--0--0--0--0---------0--------0--0--0--------------------------------------

Stave 4:

E|-----------10--10----------------------------------------------------------------------------------------------------------------17--17--15--15-------------------------------
B|-------------------14--14------------------------------------------------------------------------------------------------15--15------------------15--15-----------------------
G|---------------------------11--11--------------------------------------------------------------------------------18--18----------------------------------16--16--14-----------
D|-----------------------------------12--12---------------------------------11--7--11--7-------------------16--16---------------------------------------------------------------
A|-------------------------------------------14--14--12--12--------------9----------------9--------14--14-----------------------------------------------------------------------
E|--------------------------------------------------------------------7----------------------7----------------------------------------------------------------------------------
B|--0--0--0--------------------------------------------------0--0--0----------------------------0--------------------------------------------------0---0---0---0---0---0--------

http://www.guitartabcreator.com
Guitar Tab Creator is intended to store guitar tab created through the tool. It currently does not support in-line text editing. Any text you place in here will be lost. If you need to comment on your tab, please use the "Tab Notes" section located below.