Sound will begin in 5 seconds

hope has abandoned us

01234567891011121314151617181920212223
E
B
G
D
A
E
B
0 1 2 3 4 5 6 7 8 9 10 11 12 13 14 15 16 17 18 19 20 21 22 23
Song Science #1: How Pros Use 6 Chords to Write Hit Songs
(/) Slide Up  (\) Slide Down  (h) Hammer On  (p) Pull Off  (b) Bend (r) Release (v) Vibrato

Stave 1:

E|-----------------------------------------------------------------------------------------------------------------------------------------------------
B|-----------------------------------------------------------------------------------------------------------------------------------------------------
G|-----------------------------------------------------------------------------------------------------------------------------------------------------
D|-----------------------------------------------------------------------------------------------------------------------------------------------------
A|--------------------------------------------12-------------14--------------------------------------------------------15--------------14--------------
E|-----------------------------------------------------------------------------------------------------------------------------------------------------
A|--0--0--0--0--0--0--0--0--0--0--0--0--0--0------15--12--0------12--15--12--0--0--0--0--0--0--0--0--0--0--0--0--0--0------12--15--12------12--15--12--

Stave 2:

E|---------------------------------------------------------------------------------------------------------------------------------------------------------------------------------
B|---------------------------------------------------------------------------------------------------------------------------------------------------------------------------------
G|---------------------------------------------------------------------------------------------------------------------------------------------------------------------------------
D|---------------------------------------------------------------------------------------------------------------------------------------------------------------------------------
A|--------------------------------------------------------------------------------------------------------------------------------------------------12-------------15--------------
E|---------------------------------------------------------------------------------------------------------------------------------------------------------------------------------
A|--12--15--14--12--0--12--15--15--14--12--14--0--12--15--14--0--12--14--0--12--14--0--12--15--14--12--0--12--15--15--14--12--14--0--12--15--14--0------15--12--0------12--15--12--

Stave 3:

E|--------------------------------------------------------------------------------
B|--------------------------------------------------------------------------------
G|--------------------------------------------------------------------------------
D|--------------------------------------------------------------------------------
A|-----------------------7-----------------------------0--3--7--------------------
E|--5--7-----3--------------3--------5--7-----0--3--7-----------0--3--7-----------
A|--------0-----7--3--0--------7--3--------0-----------------------------0--3--7--

Stave 4:

E|------------------------------------------------------------------------------------------------------------------------------------------------------------------------------------------
B|------------------------------------------------------------------------------------------------------------------------------------------------------------------------------------------
G|------------------------------------------------------------------------------------------------------------------------------------------------------------------------------------------
D|------------------------------------------------------------------------------------------------------------------------------------------------------------------------------------------
A|----------------------------------5----------------------------------------3-------------------------------------------7----------------------------------------------0--7--11------------
E|----------------------5----------------------------------------3-----------------------------------------7--------------------------------------------------0--7--11------------0--7--11--
A|--13--12--0--0--5--9-----9--5--9-----9--5--13--12--0--0--3--7-----7--3--7-----7--3--13--12--0--0--7--11-----11--7--11-----11--7--13--12--0--0--0--0--7--11--------------------------------

Stave 5:

E|-----------------------------
B|-----------------------------
G|-----------------------------
D|-----------------------------
A|-----------------------------
E|--5--7--12--10--5--7--12--9--
A|-----------------------------

http://www.guitartabcreator.com
Guitar Tab Creator is intended to store guitar tab created through the tool. It currently does not support in-line text editing. Any text you place in here will be lost. If you need to comment on your tab, please use the "Tab Notes" section located below.