Sound will begin in 5 seconds

Valsa da despedida 1

01234567891011121314151617181920212223
E
B
G
D
A
E
B
0 1 2 3 4 5 6 7 8 9 10 11 12 13 14 15 16 17 18 19 20 21 22 23
(/) Slide Up  (\) Slide Down  (h) Hammer On  (p) Pull Off  (b) Bend (r) Release (v) Vibrato

Só segue aí porra

E|-------------------------------------------------
B|-------------------------------------------------
G|-------1-----------4-----------6-----------8-----
D|-----2---2-------6---6-------7---7-------9---9---
A|---2-------2---6-------6---7-------7---9-------9-
E|-0-----------4-----------5-----------7-----------



E|-------------------------------------------------------------------
B|-------9--------------12----------------14----------------16-------
G|-----9---9---------13----13----------14----14----------16----16----
D|---9-------9----13----------13----14----------14----16----------16-
A|-7-----------11----------------12----------------14----------------
E|-------------------------------------------------------------------

http://www.guitartabcreator.com
Guitar Tab Creator is intended to store guitar tab created through the tool. It currently does not support in-line text editing. Any text you place in here will be lost. If you need to comment on your tab, please use the "Tab Notes" section located below.