Sound will begin in 5 seconds

no1

Chords
01234567891011121314151617181920212223
E
B
G
D
A
E
B
0 1 2 3 4 5 6 7 8 9 10 11 12 13 14 15 16 17 18 19 20 21 22 23
Song Science #1: How Pros Use 6 Chords to Write Hit Songs
(/) Slide Up  (\) Slide Down  (h) Hammer On  (p) Pull Off  (b) Bend (r) Release (v) Vibrato

Stave 1:

E|--------------0-----------------------0-----------------------0-----------------------------------
B|-----------1-----1-----------------1-----1-----------------1-----1--------------------0-----------
G|--------2-----------2-----------2-----------2-----------0-----------0--------------0-----0--------
D|-----2-----------------2-----3-----------------3-----2-----------------2--------0-----------0-----
A|--0-----------------------0-----------------------3--------------------------2-----------------2--
E|--------------------------------------------------------------------------3-----------------------

Stave 2:

E|--------------1-----------------------------------------------------------------------0-----------
B|-----------3-----3--------------------0-----------------------0--------------------1-----1--------
G|--------2-----------2--------------0-----0-----------------0-----0--------------2-----------2-----
D|-----0-----------------0--------0-----------0-----------2-----------2--------2-----------------2--
A|--0--------------------------2-----------------2-----2-----------------2--0-----------------------
E|--------------------------3-----------------------0-----------------------------------------------

Stave 3:

E|--------------------------------------------------------------
B|--------------------------------------------------------------
G|--------------------------------5--5--5--5--5--5--------------
D|--7--7--7--7--7--7--3--3--x--x--5--5--5--5--5--5--5--5--x--x--
A|--7--7--7--7--7--7--3--3--x--x--3--3--3--3--3--3--5--5--x--x--
E|--5--5--5--5--5--5--1--1--x--x--------------------3--3--x--x--

Stave 4:

E|-----------------------------------------------------------------------
B|-----------------------------------------------------------------------
G|--------------------------------5--5--5--5--5--5-----------------------
D|--7--7--7--7--7--7--3--3--x--x--5--5--5--5--5--5--5--5--x-----------5--
A|--7--7--7--7--7--7--3--3--x--x--3--3--3--3--3--3--5--5--x-----------5--
E|--5--5--5--5--5--5--1--1--x--x--------------------3--3--x-----------3--

Stave 5:

E|--5--7--8--7--5--8--6--9--8--8------------------------------------------------------------------------------
B|--------------------------------8-----------------8---------------------------------------------------------
G|-----------------------------------7--6--8--5--7-----7--6--8--5--5------------------------------------------
D|-----------------------------------------------------------------------7--5------------------7--5-----------
A|--------------------------------------------------------------------8--------8--8/10--10/12--------8--8/10--
E|------------------------------------------------------------------------------------------------------------

Stave 6:

E|-------------------------------------------------------------------------------------
B|------------------------------------------18--17--15--18--17--15--18--17--15---------
G|--------------------------------------15--------------------------------------17b18--
D|----------------15--15--17b18r12--15-------------------------------------------------
A|--10/12--12h14-----------------------------------------------------------------------
E|-------------------------------------------------------------------------------------

Stave 7:

E|-----------------------------------------------------------------------
B|-----------------------------------18---------18---------18---------18r
G|--17b18r17--15------17--15--17b18------17b18------17b18------17b18-----
D|----------------17-----------------------------------------------------
A|-----------------------------------------------------------------------
E|-----------------------------------------------------------------------

http://www.guitartabcreator.com
Guitar Tab Creator is intended to store guitar tab created through the tool. It currently does not support in-line text editing. Any text you place in here will be lost. If you need to comment on your tab, please use the "Tab Notes" section located below.