Sound will begin in 5 seconds

Floor Light Flickers

01234567891011121314151617181920212223
E
B
G
D
A
E
B
0 1 2 3 4 5 6 7 8 9 10 11 12 13 14 15 16 17 18 19 20 21 22 23
Song Science #1: How Pros Use 6 Chords to Write Hit Songs
(/) Slide Up  (\) Slide Down  (h) Hammer On  (p) Pull Off  (b) Bend (r) Release (v) Vibrato

Stave 1:

G|---------------------------------------------------------------------------------
D|--11--11-------------11--11-----------11-----------9--9--------------9-----------
A|----------12--12--9----------9--9--9------9--7--7--------7--7--7--7-----7--------
E|---------------------------------------------------------------------------9--9--

Stave 2:

G|------------------------------------------------------------
D|------------------------------------------------------------
A|--11-----11--------11-----11--------9-----9-----------7--9--
E|------9------9--9------9------7--7-----7-----7--7--9--------

Stave 3:

G|------------------------------------------------------------------------------------------------------------
D|-----------------------------------------------------------9------------------------------------------------
A|--9--9--9--9--9--9--9--------7--9--7--7--7--7--7--7--7--7-----7-----11-----11--------11-----11-----9-----9--
E|-----------------------7--9--------------------------------------9------9------9--9------9------7-----7-----

Stave 4:

G|--------------------
D|--------------------
A|--9-----------7--9--
E|-----7--7--9--------

Stave 5:

G|---------------------------------------9------9---------------------------------------
D|--------7-----------------------7--11-----11-----11--9--7-----------9--9--------7--7--
A|--9--7--------9--7--0-----9--7--------------------------------9--9--------7--7--------
E|--------------------------------------------------------------------------------------

Stave 6:

G|--------------------------------------------------------
D|--------------------------------------------------------
A|--9--9--9--7--9--9--9--7--9--9--9--9--7--------------7--
E|-----------------------------------------9--9--9--9-----

Stave 7:

G|--------------------------------------
D|--------------------------------------
A|-----------7--7--7--9--9--9--6--6--6--
E|--9--9--9-----------------------------

Stave 8:

G|--------------------------------------------------------------------------------------
D|--------------------------------------------------------------------------------------
A|--9--9--9--7--9--9--9--9--7--9--9--9--9--7--------------7--9--9--9--7--9--9--9--9--7--
E|--------------------------------------------9--9--9--9--------------------------------

Stave 9:

G|----------------------
D|--------7--------11v--
A|--9--7-----9--7-------
E|----------------------

http://www.guitartabcreator.com
Guitar Tab Creator is intended to store guitar tab created through the tool. It currently does not support in-line text editing. Any text you place in here will be lost. If you need to comment on your tab, please use the "Tab Notes" section located below.