Sound will begin in 5 seconds

Toni

01234567891011121314151617181920212223
E
B
G
D
A
E
B
0 1 2 3 4 5 6 7 8 9 10 11 12 13 14 15 16 17 18 19 20 21 22 23
(/) Slide Up  (\) Slide Down  (h) Hammer On  (p) Pull Off  (b) Bend (r) Release (v) Vibrato

Stave 1:

E|---------------------------|-----------------------------|------------------10---12---13---|---
B|---------------------------|-----------------------------|---10---12---13------------------|---
G|---------------------------|----------------7---9---10---|---------------------------------|---
D|---------------------------|---7---9---10----------------|---------------------------------|---
A|---------------5---7---8---|-----------------------------|---------------------------------|---
E|---5---7---8---------------|-----------------------------|---------------------------------|---

Stave 2:

E|---12---8----------------------|---
B|------------10-----------------|---
G|-----------------9-------------|---
D|---------------------10--------|---
A|--------------------------12---|---
E|-------------------------------|---

Stave 3:

E|----------------------8---12p8----------------------|---
B|-----------------10--------------10-----------------|---
G|-------------9------------------------9-------------|---
D|--------10--------------------------------10--------|---
A|---12------------------------------------------12---|---
E|----------------------------------------------------|---

Stave 4:

E|----------------------9---12p9----------------------|---
B|-----------------10--------------10-----------------|---
G|-------------9------------------------9-------------|---
D|--------11--------------------------------11--------|---
A|---12------------------------------------------12---|---
E|----------------------------------------------------|---

http://www.guitartabcreator.com
Guitar Tab Creator is intended to store guitar tab created through the tool. It currently does not support in-line text editing. Any text you place in here will be lost. If you need to comment on your tab, please use the "Tab Notes" section located below.