Timo Am7 Arpeggio & Am G & F Soinnut

Chords

01234567891011121314151617181920212223
E
B
G
D
A
E
B
0 1 2 3 4 5 6 7 8 9 10 11 12 13 14 15 16 17 18 19 20 21 22 23
(/) Slide Up  (\) Slide Down  (h) Hammer On  (p) Pull Off  (b) Bend (r) Release (v) Vibrato

Stave 1:

E|--------------------------12--15--17--|--15--12--------------------------|--
B|----------------------13--------------|----------13----------------------|--
G|--------------12--14------------------|--------------14--12--------------|--
D|----------14--------------------------|----------------------14----------|--
A|--12--15------------------------------|--------------------------15--12--|--
E|--------------------------------------|----------------------------------|--

Stave 2:

E|--5--------------------5--|--3--------------------3--|--1--------------------1--|--
B|--5-----------------5-----|--3-----------------3-----|--1-----------------1-----|--
G|--5--------------5--------|--4--------------4--------|--2--------------2--------|--
D|--7-----------7-----------|--5-----------5-----------|--3-----------3-----------|--
A|--7--------7--------------|--5--------5--------------|--3--------3--------------|--
E|--5-----5-----------------|--3-----3-----------------|--1-----1-----------------|--

							http://www.guitartabcreator.com
Instruments
{"title":"","strings":[[[".",".",".",".",".",".",12,15,17,"|",15,12,".",".",".",".",".",".","|"],[".",".",".",".",".",13,".",".",".","|",".",".",13,".",".",".",".",".","|"],[".",".",".",12,14,".",".",".",".","|",".",".",".",14,12,".",".",".","|"],[".",".",14,".",".",".",".",".",".","|",".",".",".",".",".",14,".",".","|"],[12,15,".",".",".",".",".",".",".","|",".",".",".",".",".",".",15,12,"|"],[".",".",".",".",".",".",".",".",".","|",".",".",".",".",".",".",".",".","|"]],[[5,"_",".",".",".",".",".",5,"|",3,"_",".",".",".",".",".",3,"|",1,"_",".",".",".",".",".",1,"|"],[5,"_",".",".",".",".",5,".","|",3,"_",".",".",".",".",3,".","|",1,"_",".",".",".",".",1,".","|"],[5,"_",".",".",".",5,".",".","|",4,"_",".",".",".",4,".",".","|",2,"_",".",".",".",2,".",".","|"],[7,"_",".",".",7,".",".",".","|",5,"_",".",".",5,".",".",".","|",3,"_",".",".",3,".",".",".","|"],[7,"_",".",7,".",".",".",".","|",5,"_",".",5,".",".",".",".","|",3,"_",".",3,".",".",".",".","|"],[5,"_",5,".",".",".",".",".","|",3,"_",3,".",".",".",".",".","|",1,"_",1,".",".",".",".",".","|"]]],"numberofstrings":6,"notes":["E","B","G","D","A","E","B"],"capo":0,"stringnotes":["E4","B3","G3","D3","A2","E2"],"comments":["Stave 1:","Stave 2:"],"timing":[["W","W","W","W","W","W","W","W","W",null,"W","W","W","W","W","W","W","W"],["W",null,"W","W","W","W","W","W",null,"W",null,"W","W","W","W","W","W",null,"W",null,"W","W","W","W","W","W"]],"timingvisible":false,"tabcounter":27,"stave":1,"totalstaves":2,"instrument":"6guitar","selectedtuning":"6_standard","version":"13"}

Member for

2 years 11 months
Submitted by SammyOpe on Wed, 2018-05-16 10:00