Santeri Sweep Etydi

Chords

01234567891011121314151617181920212223
E
B
G
D
A
E
B
0 1 2 3 4 5 6 7 8 9 10 11 12 13 14 15 16 17 18 19 20 21 22 23
(/) Slide Up  (\) Slide Down  (h) Hammer On  (p) Pull Off  (b) Bend (r) Release (v) Vibrato

Stave 1:

E|--12--8-----------------------------------8--|--12--7-------------------------------7--|--
B|---------10---------------------------10-----|---------9-------------------------9-----|--
G|-------------9---------------------9---------|------------9-------------------9--------|--
D|----------------10-------------10------------|---------------9-------------9-----------|--
A|--------------------12--7--12----------------|------------------11--7--11--------------|--
E|---------------------------------------------|-----------------------------------------|--

Stave 2:

E|--12--9-----------------------------------9--|--13--10-------------------------------------10--|--
B|---------10---------------------------10-----|----------10-----------------------------10------|--
G|-------------9---------------------9---------|--------------10---------------------10----------|--
D|----------------11-------------11------------|------------------12-------------12--------------|--
A|--------------------12--7--12----------------|----------------------12--8--12------------------|--
E|---------------------------------------------|-------------------------------------------------|--

Stave 3:

E|--10--7-------------------------------7--|--12--8---------------------------------8--|--
B|---------8-------------------------8-----|---------8---------------------------8-----|--
G|------------7-------------------7--------|------------9---------------------9--------|--
D|---------------9-------------9-----------|---------------10-------------10-----------|--
A|------------------10--5--10--------------|-------------------10--7--10---------------|--
E|-----------------------------------------|-------------------------------------------|--

Stave 4:

E|--8--5-----------------------------5--|--10--6-----------------------------6--|--
B|--------6-----------------------6-----|---------6-----------------------6-----|--
G|-----------5-----------------5--------|------------7-----------------7--------|--
D|--------------7-----------7-----------|---------------8-----------8-----------|--
A|-----------------8--3--8--------------|------------------8--5--8--------------|--
E|--------------------------------------|---------------------------------------|--

Stave 5:

E|--12--7---------------------------------7--|--12--7-------------------------------7--|--
B|---------10-------------------------10-----|---------9-------------------------9-----|--
G|-------------9-------------------9---------|------------9-------------------9--------|--
D|----------------9-------------9------------|---------------9-------------9-----------|--
A|-------------------12--7--12---------------|------------------11--7--12--------------|--
E|-------------------------------------------|-----------------------------------------|--

							http://www.guitartabcreator.com
Instruments
{"title":"Santeri Sweep Etydi","strings":[[[12,8,".",".",".",".",".",".",".",".",".",8,"|",12,7,".",".",".",".",".",".",".",".",".",7,"|"],[".",".",10,".",".",".",".",".",".",".",10,".","|",".",".",9,".",".",".",".",".",".",".",9,".","|"],[".",".",".",9,".",".",".",".",".",9,".",".","|",".",".",".",9,".",".",".",".",".",9,".",".","|"],[".",".",".",".",10,".",".",".",10,".",".",".","|",".",".",".",".",9,".",".",".",9,".",".",".","|"],[".",".",".",".",".",12,7,12,".",".",".",".","|",".",".",".",".",".",11,7,11,".",".",".",".","|"],[".",".",".",".",".",".",".",".",".",".",".",".","|",".",".",".",".",".",".",".",".",".",".",".",".","|"]],[[12,9,".",".",".",".",".",".",".",".",".",9,"|",13,10,".",".",".",".",".",".",".",".",".",10,"|"],[".",".",10,".",".",".",".",".",".",".",10,".","|",".",".",10,".",".",".",".",".",".",".",10,".","|"],[".",".",".",9,".",".",".",".",".",9,".",".","|",".",".",".",10,".",".",".",".",".",10,".",".","|"],[".",".",".",".",11,".",".",".",11,".",".",".","|",".",".",".",".",12,".",".",".",12,".",".",".","|"],[".",".",".",".",".",12,7,12,".",".",".",".","|",".",".",".",".",".",12,8,12,".",".",".",".","|"],[".",".",".",".",".",".",".",".",".",".",".",".","|",".",".",".",".",".",".",".",".",".",".",".",".","|"]],[[10,7,".",".",".",".",".",".",".",".",".",7,"|",12,8,".",".",".",".",".",".",".",".",".",8,"|"],[".",".",8,".",".",".",".",".",".",".",8,".","|",".",".",8,".",".",".",".",".",".",".",8,".","|"],[".",".",".",7,".",".",".",".",".",7,".",".","|",".",".",".",9,".",".",".",".",".",9,".",".","|"],[".",".",".",".",9,".",".",".",9,".",".",".","|",".",".",".",".",10,".",".",".",10,".",".",".","|"],[".",".",".",".",".",10,5,10,".",".",".",".","|",".",".",".",".",".",10,7,10,".",".",".",".","|"],[".",".",".",".",".",".",".",".",".",".",".",".","|",".",".",".",".",".",".",".",".",".",".",".",".","|"]],[[8,5,".",".",".",".",".",".",".",".",".",5,"|",10,6,".",".",".",".",".",".",".",".",".",6,"|"],[".",".",6,".",".",".",".",".",".",".",6,".","|",".",".",6,".",".",".",".",".",".",".",6,".","|"],[".",".",".",5,".",".",".",".",".",5,".",".","|",".",".",".",7,".",".",".",".",".",7,".",".","|"],[".",".",".",".",7,".",".",".",7,".",".",".","|",".",".",".",".",8,".",".",".",8,".",".",".","|"],[".",".",".",".",".",8,3,8,".",".",".",".","|",".",".",".",".",".",8,5,8,".",".",".",".","|"],[".",".",".",".",".",".",".",".",".",".",".",".","|",".",".",".",".",".",".",".",".",".",".",".",".","|"]],[[12,7,".",".",".",".",".",".",".",".",".",7,"|",12,7,".",".",".",".",".",".",".",".",".",7,"|"],[".",".",10,".",".",".",".",".",".",".",10,".","|",".",".",9,".",".",".",".",".",".",".",9,".","|"],[".",".",".",9,".",".",".",".",".",9,".",".","|",".",".",".",9,".",".",".",".",".",9,".",".","|"],[".",".",".",".",9,".",".",".",9,".",".",".","|",".",".",".",".",9,".",".",".",9,".",".",".","|"],[".",".",".",".",".",12,7,12,".",".",".",".","|",".",".",".",".",".",11,7,12,".",".",".",".","|"],[".",".",".",".",".",".",".",".",".",".",".",".","|",".",".",".",".",".",".",".",".",".",".",".",".","|"]]],"numberofstrings":6,"notes":["E","B","G","D","A","E","B"],"capo":0,"stringnotes":["E4","B3","G3","D3","A2","E2"],"comments":["Stave 1:","Stave 2:","Stave 3:","Stave 4:","Stave 5:"],"timing":[["W","W","W","W","W","W","W","W","W","W","W","W",null,"W","W","W","W","W","W","W","W","W","W","W","W"],["W","W","W","W","W","W","W","W","W","W","W","W",null,"W","W","W","W","W","W","W","W","W","W","W","W"],["W","W","W","W","W","W","W","W","W","W","W","W",null,"W","W","W","W","W","W","W","W","W","W","W","W"],["W","W","W","W","W","W","W","W","W","W","W","W",null,"W","W","W","W","W","W","W","W","W","W","W","W"],["W","W","W","W","W","W","W","W","W","W","W","W",null,"W","W","W","W","W","W","W","W","W","W","W","W"]],"timingvisible":false,"tabcounter":26,"stave":4,"totalstaves":5,"instrument":"6guitar","selectedtuning":"6_standard","version":"13"}

Member for

2 years 11 months
Submitted by SammyOpe on Fri, 2017-11-24 05:30