Sound will begin in 5 seconds

Santeri Sweep Arpeggio 1.1.2018

01234567891011121314151617181920212223
E
B
G
D
A
E
B
0 1 2 3 4 5 6 7 8 9 10 11 12 13 14 15 16 17 18 19 20 21 22 23
(/) Slide Up  (\) Slide Down  (h) Hammer On  (p) Pull Off  (b) Bend (r) Release (v) Vibrato

Stave 1:

E|------------------|------------------|------------------|----------12--17--|--
B|------------------|------------------|----------13--17--|------13----------|--
G|------------------|----------14--17--|------14----------|--14--------------|--
D|----------14--19--|------14----------|--14--------------|------------------|--
A|------15----------|--15--------------|------------------|------------------|--
E|--17--------------|------------------|------------------|------------------|--

Stave 2:

E|-----------------|----------------|---------------|--------7--12--|--
B|-----------------|----------------|--------8--12--|-----8---------|--
G|-----------------|---------9--12--|-----9---------|--9------------|--
D|----------9--14--|------9---------|--9------------|---------------|--
A|------10---------|--10------------|---------------|---------------|--
E|--12-------------|----------------|---------------|---------------|--

http://www.guitartabcreator.com
Guitar Tab Creator is intended to store guitar tab created through the tool. It currently does not support in-line text editing. Any text you place in here will be lost. If you need to comment on your tab, please use the "Tab Notes" section located below.