Sound will begin in 5 seconds

Santeri sointuja Arpeggiot

01234567891011121314151617181920212223
E
B
G
D
A
E
B
0 1 2 3 4 5 6 7 8 9 10 11 12 13 14 15 16 17 18 19 20 21 22 23
(/) Slide Up  (\) Slide Down  (h) Hammer On  (p) Pull Off  (b) Bend (r) Release (v) Vibrato

Stave 1:

E|--------------------9--11--12--11--9--------------------------------|--
B|----------------10--------------------10----------------------------|--
G|----------8--9----------------------------9--8----------------------|--
D|------11----------------------------------------11------------------|--
A|--12------------------------------------------------12--7--6--------|--
E|--------------------------------------------------------------9--5--|--

Stave 2:

E|----------------------12--17--|----------------------12--17--|--
B|------------------14----------|------------------13----------|--
G|--------------14--------------|--------------14--------------|--
D|----------14------------------|----------14------------------|--
A|--12--16----------------------|--12--15----------------------|--
E|------------------------------|------------------------------|--

Stave 3:

E|--------------------------12--16--17--|--------------------------12--15--17--|--
B|----------------------14--------------|----------------------14--------------|--
G|--------------13--14------------------|--------------12--14------------------|--
D|----------14--------------------------|----------14--------------------------|--
A|--12--16------------------------------|--12--16------------------------------|--
E|--------------------------------------|--------------------------------------|--

http://www.guitartabcreator.com
Guitar Tab Creator is intended to store guitar tab created through the tool. It currently does not support in-line text editing. Any text you place in here will be lost. If you need to comment on your tab, please use the "Tab Notes" section located below.