Sound will begin in 5 seconds

Santeri Pedaalinuotit

01234567891011121314151617181920212223
E
B
G
D
A
E
B
0 1 2 3 4 5 6 7 8 9 10 11 12 13 14 15 16 17 18 19 20 21 22 23
(/) Slide Up  (\) Slide Down  (h) Hammer On  (p) Pull Off  (b) Bend (r) Release (v) Vibrato

Stave 1:

E|--13--12--13--10--13------13------13------13-----|--12--8----------------------------8--12--8--17--|--
B|----------------------13------12------10------9--|---------10--------------------10----------------|--
G|-------------------------------------------------|-------------9--------------9--------------------|--
D|-------------------------------------------------|----------------10------10-----------------------|--
A|-------------------------------------------------|--------------------12---------------------------|--
E|-------------------------------------------------|-------------------------------------------------|--

Stave 2:

E|--------------------------------------------------|--------------13--16--13--------------|--17--12--
B|--18--17--18--15--18------18------18------18------|----------15--------------15----------|----------
G|----------------------17------16------14------13--|--13--16----------------------16--13--|----------
D|--------------------------------------------------|--------------------------------------|----------
A|--------------------------------------------------|--------------------------------------|----------
E|--------------------------------------------------|--------------------------------------|----------

Stave 3:

E|------------------------------|--
B|--13--------------------------|--
G|------14----------------------|--
D|----------14------------------|--
A|--------------15--12--11--12--|--
E|------------------------------|--

Stave 4:

E|--19--16--17--19--17--16--|--------------------------|--------------------------|------------------
B|--------------------------|--18--15--17--18--17--15--|--------------------------|------------------
G|--------------------------|--------------------------|--16--13--14--16--14--13--|------------------
D|--------------------------|--------------------------|--------------------------|--15--12--14--15--
A|--------------------------|--------------------------|--------------------------|------------------
E|--------------------------|--------------------------|--------------------------|------------------

Stave 5:

E|----------|--------------------------|----------------------------------|--
B|----------|--------------------------|----------------------------------|--
G|----------|--------------------------|----------------------------------|--
D|--14--12--|--------------------------|----------------------------------|--
A|----------|--14--11--12--14--12--11--|------------------------------12--|--
E|----------|--------------------------|--13--10--12--13--12--10--12------|--

http://www.guitartabcreator.com
Guitar Tab Creator is intended to store guitar tab created through the tool. It currently does not support in-line text editing. Any text you place in here will be lost. If you need to comment on your tab, please use the "Tab Notes" section located below.