Sound will begin in 5 seconds

Santeri Em Asteikko Soinnuin

01234567891011121314151617181920212223
E
B
G
D
A
E
B
0 1 2 3 4 5 6 7 8 9 10 11 12 13 14 15 16 17 18 19 20 21 22 23
(/) Slide Up  (\) Slide Down  (h) Hammer On  (p) Pull Off  (b) Bend (r) Release (v) Vibrato

Stave 1:

E|--19--15------------------|------------------14--17--|--15--12------------------|--
B|----------17--------------|--------------15----------|----------13--------------|--
G|--------------16----------|----------14--------------|--------------12----------|--
D|------------------17------|------16------------------|------------------14------|--
A|----------------------19--|--17----------------------|----------------------15--|--
E|--------------------------|--------------------------|--------------------------|--

Stave 2:

E|------------------10--14--|--12--8-----------------|---------------7--10--|--
B|--------------12----------|---------10-------------|------------8---------|--
G|----------11--------------|-------------9----------|---------7------------|--
D|------12------------------|----------------10------|------9---------------|--
A|--14----------------------|--------------------12--|--10------------------|--
E|--------------------------|------------------------|----------------------|--

Stave 3:

E|--8--5--------------|--------------3--7--|--
B|--------7-----------|-----------5--------|--
G|-----------5--------|--------4-----------|--
D|--------------7-----|-----5--------------|--
A|-----------------9--|--7-----------------|--
E|--------------------|--------------------|--

http://www.guitartabcreator.com
Guitar Tab Creator is intended to store guitar tab created through the tool. It currently does not support in-line text editing. Any text you place in here will be lost. If you need to comment on your tab, please use the "Tab Notes" section located below.