Sound will begin in 5 seconds

Santeri E Fryyginen Dominantti

Chords
01234567891011121314151617181920212223
E
B
G
D
A
E
B
0 1 2 3 4 5 6 7 8 9 10 11 12 13 14 15 16 17 18 19 20 21 22 23
(/) Slide Up  (\) Slide Down  (h) Hammer On  (p) Pull Off  (b) Bend (r) Release (v) Vibrato

Stave 1:

E|------------------------------------------------------------------------------13--16--17--16--13--
B|--------------------------------------------------13--15--17--15--13--15--17----------------------
G|--------------------------------------13--14--16--------------------------------------------------
D|--------------------------12--14--15--------------------------------------------------------------
A|--------------12--14--15--------------------------------------------------------------------------
E|--12--13--16--------------------------------------------------------------------------------------

Stave 2:

E|-----------------------------------------------------------------------|-----0-----|--
B|--17--15--13-----------------------------------------------------------|-----0-----|--
G|--------------16--14--13--14--16--14--13-------------------------------|-----------|--
D|------------------------------------------15--14--12-------------------|-----------|--
A|------------------------------------------------------15--14--12--11v--|-----------|--
E|-----------------------------------------------------------------------|--0--------|--

Stave 3:

E|------------------------------------------12--16--|--16--12------------------------------------------
B|----------------------------------12--15----------|----------15--12----------------------------------
G|--------------------------13--14------------------|------------------14--13--------------------------
D|------------------12--14--------------------------|--------------------------14--12------------------
A|----------12--14----------------------------------|----------------------------------14--12----------
E|--12--16------------------------------------------|------------------------------------------16--12--

Stave 4:

E|------------------------------------------16--17--|--19--16------------------17--20--19v--|--
B|----------------------------------15--17----------|----------17----------18---------------|--
G|--------------------------13--14------------------|--------------16--17-------------------|--
D|------------------12--14--------------------------|---------------------------------------|--
A|----------11--12----------------------------------|---------------------------------------|--
E|--10--12------------------------------------------|---------------------------------------|--

http://www.guitartabcreator.com
Guitar Tab Creator is intended to store guitar tab created through the tool. It currently does not support in-line text editing. Any text you place in here will be lost. If you need to comment on your tab, please use the "Tab Notes" section located below.