Sound will begin in 5 seconds

Santeri Arpeggiot

01234567891011121314151617181920212223
E
B
G
D
A
E
B
0 1 2 3 4 5 6 7 8 9 10 11 12 13 14 15 16 17 18 19 20 21 22 23
(/) Slide Up  (\) Slide Down  (h) Hammer On  (p) Pull Off  (b) Bend (r) Release (v) Vibrato

Stave 1:

E|--15--12----------------------------------------------12--15--12--|--
B|----------13--------------------------------------13--------------|--
G|--------------16--12----------------------12--16------------------|--
D|----------------------14--------------14--------------------------|--
A|--------------------------15--14--15------------------------------|--
E|------------------------------------------------------------------|--

Stave 2:

E|--17--12----------------------------------------------12--17--12--|--
B|----------13--------------------------------------13--------------|--
G|--------------14--12----------------------12--14------------------|--
D|----------------------14--------------14--------------------------|--
A|--------------------------15--12--15------------------------------|--
E|------------------------------------------------------------------|--

Stave 3:

E|--19--15----------------------------------------------15--19--15--|--
B|----------17--------------------------------------17--------------|--
G|--------------16------------------------------16------------------|--
D|------------------17----------------------17----------------------|--
A|----------------------19--14------14--19--------------------------|--
E|------------------------------15----------------------------------|--

Stave 4:

E|--17--15--14----------------------------------------------14--17--|--
B|--------------15--------------------------------------15----------|--
G|------------------14------------------------------14--------------|--
D|----------------------17--16--------------16--17------------------|--
A|------------------------------17--12--17--------------------------|--
E|------------------------------------------------------------------|--

http://www.guitartabcreator.com
Guitar Tab Creator is intended to store guitar tab created through the tool. It currently does not support in-line text editing. Any text you place in here will be lost. If you need to comment on your tab, please use the "Tab Notes" section located below.