Sound will begin in 5 seconds

Santeri 2.

01234567891011121314151617181920212223
E
B
G
D
A
E
B
0 1 2 3 4 5 6 7 8 9 10 11 12 13 14 15 16 17 18 19 20 21 22 23
(/) Slide Up  (\) Slide Down  (h) Hammer On  (p) Pull Off  (b) Bend (r) Release (v) Vibrato

Stave 1:

E|--------5--8--|---------8--12--|----------12--17--|----------17--20--|--
B|-----5--------|-----10---------|------13----------|------17----------|--
G|--5-----------|--9-------------|--14--------------|--17--------------|--
D|--------------|----------------|------------------|------------------|--
A|--------------|----------------|------------------|------------------|--
E|--------------|----------------|------------------|------------------|--

Stave 2:

E|--------4--7--|--------7--12--|----------12--16--|----------16--19--|--
B|-----5--------|-----9---------|------12----------|------17----------|--
G|--4-----------|--9------------|--13--------------|--16--------------|--
D|--------------|---------------|------------------|------------------|--
A|--------------|---------------|------------------|------------------|--
E|--------------|---------------|------------------|------------------|--

Stave 3:

E|-----------------8--12--8-----------------|----------------------12--17--12----------------------|--
B|-------------10------------10-------------|------------------13--------------13------------------|--
G|----------9--------------------9----------|--------------14----------------------14--------------|--
D|------10--------------------------10------|----------14------------------------------14----------|--
A|--12----------------------------------12--|--12--15--------------------------------------15--12--|--
E|------------------------------------------|------------------------------------------------------|--

http://www.guitartabcreator.com
Guitar Tab Creator is intended to store guitar tab created through the tool. It currently does not support in-line text editing. Any text you place in here will be lost. If you need to comment on your tab, please use the "Tab Notes" section located below.