Sound will begin in 5 seconds

Santeri 1.

01234567891011121314151617181920212223
E
B
G
D
A
E
B
0 1 2 3 4 5 6 7 8 9 10 11 12 13 14 15 16 17 18 19 20 21 22 23
(/) Slide Up  (\) Slide Down  (h) Hammer On  (p) Pull Off  (b) Bend (r) Release (v) Vibrato

Stave 1:

E|--------------------------------------------------13--16--17--|--17--16--13--------------------------
B|--------------------------------------13--15--17--------------|--------------17--15--13--------------
G|--------------------------13--14--16--------------------------|--------------------------16--14--13--
D|--------------12--14--15--------------------------------------|--------------------------------------
A|--12--14--15--------------------------------------------------|--------------------------------------
E|--------------------------------------------------------------|--------------------------------------

Stave 2:

E|----------------------------------|--
B|----------------------------------|--
G|----------------------------------|--
D|--15--14--12----------------------|--
A|--------------15--14--12--11--12--|--
E|----------------------------------|--

Stave 3:

E|--13--12--10-----------------|-------------------------|--------------------------|--
B|--------------13--12--10--9--|-------------------------|--------------------------|--
G|-----------------------------|--10--9--7---------------|--------------------------|--
D|-----------------------------|------------10--9--7--6--|--------------------------|--
A|-----------------------------|-------------------------|--8--7--5-----------------|--
E|-----------------------------|-------------------------|-----------8--7--5--4--5--|--

Stave 4:

E|--13--12--10--13--12--10--|------------------------|----------------------|--------------------|--
B|--------------------------|--12--10--9--12--10--9--|----------------------|--------------------|--
G|--------------------------|------------------------|--10--9--7--10--9--7--|--------------------|--
D|--------------------------|------------------------|----------------------|--9--7--6--9--7--6--|--
A|--------------------------|------------------------|----------------------|--------------------|--
E|--------------------------|------------------------|----------------------|--------------------|--

Stave 5:

E|--------------------|-----------------------|--
B|--------------------|-----------------------|--
G|--------------------|-----------------------|--
D|--------------------|-----------------------|--
A|--8--7--5--8--7--5--|-----------------------|--
E|--------------------|--7--5--4--7--5--4--5--|--

http://www.guitartabcreator.com
Guitar Tab Creator is intended to store guitar tab created through the tool. It currently does not support in-line text editing. Any text you place in here will be lost. If you need to comment on your tab, please use the "Tab Notes" section located below.