Sound will begin in 5 seconds

Rock Blues Arpeggiot 29.3.2018

01234567891011121314151617181920212223
E
B
G
D
A
E
B
0 1 2 3 4 5 6 7 8 9 10 11 12 13 14 15 16 17 18 19 20 21 22 23
(/) Slide Up  (\) Slide Down  (h) Hammer On  (p) Pull Off  (b) Bend (r) Release (v) Vibrato

Stave 1:

E|-----------------------------5-----------------------|--------------------------5-----------------------
B|-----------------------5--8-----8--5-----------------|--------------------5--8-----8--5-----------------
G|--------------------5-----------------5--------------|-----------------5-----------------5--------------
D|--------------5--7-----------------------7--5--------|-----------5--7-----------------------7--5--------
A|-----------7-----------------------------------7-----|--------7-----------------------------------7-----
E|-----5--8-----------------------------------------8--|--5--8-----------------------------------------8--

Stave 2:

E|--------------------5--8--10--8--5-----------------|--------------------------5-----------------------
B|-----------------6------------------6--------------|--------------------5--8-----8--5-----------------
G|-----------5--7------------------------7--5--------|-----------------5-----------------5--------------
D|--------7------------------------------------7-----|-----------5--7-----------------------7--5--------
A|--5--8------------------------------------------8--|--------7-----------------------------------7-----
E|---------------------------------------------------|--5--8-----------------------------------------8--

Stave 3:

E|------------------------8--12--|--10--7---------------------|--------------------------|--
B|--------------------10---------|---------9------------------|--------------------5--8--|--
G|-------------9--10-------------|------------9--7------------|-----------------5--------|--
D|---------10--------------------|------------------9---------|-----------5--7-----------|--
A|--8--12------------------------|---------------------11--7--|--------7-----------------|--
E|-------------------------------|----------------------------|--5--8--------------------|--

Stave 4:

E|---------------------7--10--|--
B|------------------9---------|--
G|------------7--9------------|--
D|---------9------------------|--
A|--7--11---------------------|--
E|----------------------------|--

http://www.guitartabcreator.com
Guitar Tab Creator is intended to store guitar tab created through the tool. It currently does not support in-line text editing. Any text you place in here will be lost. If you need to comment on your tab, please use the "Tab Notes" section located below.