Reima 29.5.2018

Chords

01234567891011121314151617181920212223
E
B
G
D
A
E
B
0 1 2 3 4 5 6 7 8 9 10 11 12 13 14 15 16 17 18 19 20 21 22 23
(/) Slide Up  (\) Slide Down  (h) Hammer On  (p) Pull Off  (b) Bend (r) Release (v) Vibrato

Stave 1:

G|--12--11------|--12--11----------|--11--------------|------------------|-----------------|--
D|----------12--|----------12--10--|------12--10------|--12--10----------|--10-------------|--
A|--------------|------------------|--------------12--|----------12--10--|------12--10--9--|--
E|--------------|------------------|------------------|------------------|-----------------|--

Stave 2:

G|-----------------|----------------|------
D|-----------------|----------------|------
A|--12--10--9------|--10--9---------|------
E|-------------10--|---------10--8--|--10--

Stave 3:

G|--------------------------11--12--|--12--11--------------------------|--
D|------------------10--12----------|----------12--10------------------|--
A|----------10--12------------------|------------------12--10----------|--
E|--10--14--------------------------|--------------------------14--10--|--

							http://www.guitartabcreator.com
Instruments
{"title":"Reima 29.5.2018","strings":[[[12,11,".","|",12,11,".",".","|",11,".",".",".","|",".",".",".",".","|",".",".",".",".","|"],[".",".",12,"|",".",".",12,10,"|",".",12,10,".","|",12,10,".",".","|",10,".",".",".","|"],[".",".",".","|",".",".",".",".","|",".",".",".",12,"|",".",".",12,10,"|",".",12,10,9,"|"],[".",".",".","|",".",".",".",".","|",".",".",".",".","|",".",".",".",".","|",".",".",".",".","|"]],[[".",".",".",".","|",".",".",".",".","|","."],[".",".",".",".","|",".",".",".",".","|","."],[12,10,9,".","|",10,9,".",".","|","."],[".",".",".",10,"|",".",".",10,8,"|",10]],[[".",".",".",".",".",".",11,12,"|",12,11,".",".",".",".",".",".","|"],[".",".",".",".",10,12,".",".","|",".",".",12,10,".",".",".",".","|"],[".",".",10,12,".",".",".",".","|",".",".",".",".",12,10,".",".","|"],[10,14,".",".",".",".",".",".","|",".",".",".",".",".",".",14,10,"|"]]],"numberofstrings":4,"notes":["G","D","A","E"],"capo":0,"stringnotes":["G2","D2","A1","E1"],"comments":["Stave 1:","Stave 2:","Stave 3:"],"timing":[["W","W","W",null,"W","W","W","W",null,"W","W","W","W",null,"W","W","W","W",null,"W","W","W","W"],["W","W","W","W",null,"W","W","W","W",null,"W"],["W","W","W","W","W","W","W","W",null,"W","W","W","W","W","W","W","W"]],"timingvisible":false,"tabcounter":18,"stave":2,"totalstaves":3,"instrument":"4bass","selectedtuning":"4bass_standard","version":"13"}

Member for

2 years 11 months
Submitted by SammyOpe on Tue, 2018-05-29 07:52